Song name
# A B C D E F G H I J K L M N O P Q R S T U V W X Y Z

Herbrightskies - Burn All The Small Towns tab

Intro
Guitar 1:
D#||---------------------------------------|
A#||---------------------------------------|
F#||--10-11-----------11-10--10-11----11---|
C#||--------12---11--------11-----12--11---| (x2)
G#||-----------13--13-----------------9----|
C#||---------------------------------------|


D#||--------|
A#||--------|
F#||--------|
C#||--11----| play after first riff only
G#||-----8--|
C#||--------|

Pre-Verse
Guitar 1:
D#||-----------------------------------------------------|
A#||-----------------------------------------------------|
F#||-------11h10h11--------------------10----10------x2--|
C#||-13-13----------11-13-11-13-11------11----11---------|
G#||-13-13-----------------------------------------------|
C#||-13-13-----------------------------------------------|


D#||------------------------------------------------------------------------|
A#||------------------------------------------------------------------------|
F#||-----11--------10-----------13------------------------------------------|
C#||-----x---(x16)--x----(x8)---x-------------------------------------------|
G#||-----9---------12-----------11------------------------------------------|
C#||------------------------------------------------------------------------|

D#||-----------------------------------------------------|
A#||-----------------------------------------------------|
F#||-------11h10h11--------------------10----10------x2--|
C#||-13-13----------11-13-11-13-11------11----11---------|
G#||-13-13-----------------------------------------------|
C#||-13-13-----------------------------------------------|

D#||-------------------------------------------------------------|
A#||-------------------------------------------------------------|
F#||--------------------------------------------10-11----13-11-9-|
C#||---1----------9---------6--------11---------------11---------| (x2)
G#||---1--(x6)----9--(x6)---6--(x6)--11--(x6)--------------------|
C#||---1----------9---------6--------11--------------------------|

Pattern:
bar = down, up, pause, down, up, pause, down, up, pause - you'll be able to 
recognise it when you listen to the song

Pre-Chorus
D#||-----------------------------------------------------------------------|
A#||-----------------------------------------------------------------------|
F#||-11-8-8-9-8-8-(x2)-11--11-8-8-9-8-8-(x2)-13-9-11-8-8-9-8-8-(x2)-11-----|
C#||---------------------11-------------------------------------------11---|
G#||-----------------------------------------------------------------------|
C#||-----------------------------------------------------------------------|

D#||----------------------|
A#||----------------------|
F#||-11-8-8-9-8-8-(x2)----|
C#||-------------------1--|
G#||-------------------1--|
C#||-------------------1--|

Chorus
D#||-------------------------------------------------------|
A#||-------------------------------------------------------|
F#||------------4-4-------------------6-6------------------| (x2)
C#||-1-1--------4-4--(x14)-1-1--------6-6--(x6)--4-4444h6--| 
G#||-1-1-(x14)--2-2--------1-1-(x14)--4-4--------4-4444h6--|
C#||-1-1-------------------1-1-------------------4-4444h6--|

E.g.
1 1
1 1 (x14)
1 1
play once, then play 14 times (down, up pattern)

Bridge
D#||------------------------------------------------------------------|
A#||------------------------------------------------------------------|
F#||---10-10-10---10-10-10--(x2)-11-8-8-9-12--(x2)-10--------10-------|
C#||-----------------------------------------------x-(x6)-1--x-(x6)---|
G#||-----------------------------------------------8------1--8--------|
C#||------------------------------------------------------1-----------|

hold very last 10

D#||------------------------------------------------------------------------|
A#||------------------------------------------------------------------------|
F#||---11-8-8-9-12--13-8-8-9-12-10-------10---------10----------------------|
D#||-------------------------------------x-(x6)--1--x-(x6)------------------|
A#||-------------------------------------8-------1--8-----------------------|
F#||---------------------------------------------1--------------------------|

Pre-Chorus
D#||-----------------------------------------------------------------------|
A#||-----------------------------------------------------------------------|
F#||-11-8-8-9-8-8-(x2)-11--11-8-8-9-8-8-(x2)-13-9-11-8-8-9-8-8-(x2)-11-----|
C#||---------------------11-------------------------------------------11---|
G#||-----------------------------------------------------------------------|
C#||-----------------------------------------------------------------------|

D#||-----------------------------|
A#||-----------------------------|
F#||-11-8-8-9-8-8-11-8-8---------|
C#||---------------------1-------|
G#||---------------------1--(x4)-|
C#||---------------------1-------|

Pattern 
bar = down, up, down, up

Chorus
D#||-------------------------------------------------------|
A#||-------------------------------------------------------|
F#||------------4-4-------------------6-6------------------| (x2)
C#||-1-1--------4-4--(x14)-1-1--------6-6--(x6)--4-4444h6--| 
G#||-1-1-(x14)--2-2--------1-1-(x14)--4-4--------4-4444h6--|
C#||-1-1-------------------1-1-------------------4-4444h6--|

Outro
D#||-------------|
A#||-------------|
F#||-------------|
C#||--1-1-1-1-1--|
G#||--1-1-1-1-1--|
C#||--1-1-1-1-1--|
Tap to rate this tab
# A B C D E F G H I J K L M N O P Q R S T U V W X Y Z