Song name
# A B C D E F G H I J K L M N O P Q R S T U V W X Y Z

Here Comes The Kraken - Confessions Of What Ive Done tab

-------------------------------------------------------------------------------
             Confessions Of What I've Done - Here Comes The Kraken
-------------------------------------------------------------------------------

Tabbed by: Zeusimo

Tuning: Drop D (D-A-D-G-B-e)

This is what I have so far but I will add whatever I get frequently
I don't know when i will finish this
I might finish today next month, year whenever
Don't want to wait tab it yourself...
I will be tabbing all of HCTK songs just to let you know
I will also give credit to anyone who fixes something I tabbed wrong

0:01
e|----------------------------------------------------|
B|----------------------------------------------------|
G|----------------------------------------------------|
D|----------------------------------------------------|
A|0000-000000-----------------------------------------|
D|0000-000000-9-6-5-8-7-5-----------------------------|
  .... ......

0:04
e|----------------------------------------------------|
B|----------------------------------------------------|
G|----------------------------------------------------|
D|9-0-6-0-5-0-(8)-0-7-0-5-0---------------------------|
A|----------------------------------------------------|
D|----------------------------------------------------|

0:06
e|----------------------------------------------------|
B|----------------------------------------------------|
G|----------------------------------------------------|
D|-------------0-5-0-(6)------------------------------|
A|0-000000-5-6----------------------------------------|
D|0-000000--------------------------------------------|
    ......

0:09
e|----------------------------------------------------|
B|----------------------------------------------------|
G|----------------------------------------------------|
D|-------------0h5p0----------------------------------|
A|0-000000-5h6-------6p5------------------------------|
D|0-000000--------------------------------------------|
    ......

0:12
e|----------------------------------------------------|
B|----------------------------------------------------|
G|----------------------------------------------------|
D|-------------0-7-0-(8)------------------------------|
A|0-000000-7-8----------------------------------------|
D|0-000000--------------------------------------------|
    ......

0:15
e|----------------------------------------------------|
B|----------------------------------------------------|
G|----------------------------------------------------|
D|---------7-8----------5-6---------------------------|
A|0-000000-----9-10-8-9-----7-8-6-7-------------------|
D|0-000000--------------------------------------------|
    ......

0:19
e|----------------------------------------------------|
B|----------------------------------------------------|
G|----------------------------------------------------|
D|0-0-0-0-0-------------------------------------------|
A|0-0-0-0-0-------------------------------------------|
D|0-0-0-0-0-------------------------------------------|
Confessions Of What I've Done!

0:20
e|----------------------------------------------------|
B|----------------------------------------------------|
G|----------------------------------------------------|
D|---------(9)-(10)-(6)-(7)-(5)-(6)-(8)-(8)-(9)-(10)--|
A|12\-7-10--------------------------------------------|
D|12\-------------------------------------------------|
      . .

0:23
e|----------------------------------------------------|
B|----------------------------------------------------|
G|----------------------------/5----------------------|
D|(7)-(8)-(8)-(6)-(6)-(5)-(5)----9-6-5-8--------------|
A|----------------------------------------------------|
D|----------------------------------------------------|

0:28
e|----------------------------------------------------|
B|------------------------------15h17h18/20-----------|
G|------------------------13h16-----------------------|
D|13h16h17/18-15h18h19/20-----------------------------|
A|----------------------------------------------------|
D|----------------------------------------------------|

0:30
e|---------------13-15b-------------------------------|
B|------------16--------------------------------------|
G|---------14-----------------------------------------|
D|------15--------------------------------------------|
A|12-16-----------------5-2-1-4-5-2-1-4---------------|
D|----------------------5-2-1-4-5-2-1-4---------------|
                        . . . . . . . .

0:33
e|----------------------------------------------------|
B|----------------------------------------------------|
G|---11-------8-7-------------------------------------|
D|12----13-14-----14-13-11-12-0-0---------------------|
A|----------------------------0-0---------------------|
D|----------------------------0-0---------------------|
                              . .

1:00
e|----------------------------------------------------|
B|----------------------------------------------------|
G|----------------------------------------------------|
D|00-00-000000-00-00-000000-00-00-000000-00-00-00-----|
A|00-00-000000-00-00-000000-00-00-000000-00-00-00-12\-|
D|00-00-000000-00-00-000000-00-00-000000-00-00-00-12\-|
  .. .. ...... .. .. ...... .. .. ...... .. .. ..

1:07
e|----------------------------------------------------|
B|----------------------------------------------------|
G|----------------------------------------------------|
D|----------------------------------------------------|
A|7-10-5-8-3-6-/5h8-7-10-5-8------(1)-----------------|
D|---------------------------0000---------------------|
                             ....

1:11
e|----------------------------------------------------|
B|----------------------------------------------------|
G|----------------------------------------------------|
D|----------------------------------------------------|
A|7-10-5-8-3-6-/5h8-7-10-5-8------(1)-----------------|
D|---------------------------0000---------------------|
                             ....

1:15
e|----------------------------------------------------|
B|----------------------------------------------------|
G|----------------------------------------------------|
D|----------------------------------------------------|
A|7-10-5-8-3-6-5-8-7-10-5-8-3-6-5-8-------------------|
D|----------------------------------------------------|
No Ni Merga Que? Ni Merga Wey!

1:23
e|----------------------------------------------------|
B|----------------------------------------------------|
G|----------------------------------------------------|
D|000000-00-000000-00-000000-00-----------------------|
A|000000-00-000000-00-000000-00-22-33-55-(1)----------|
D|000000-00-000000-00-000000-00-----------------------|
  ...... .. ...... .. ...... ..

1:31
e|----------------------------------------------------|
B|----------------------------------------------------|
G|----------------------------------------------------|
D|000000-00-000000-00-000000-00--------------0--------|
A|000000-00-000000-00-000000-00-22-33-55-(1)-0--------|
D|000000-00-000000-00-000000-00--------------0--------|
  ...... .. ...... .. ...... ..              .

1:41
e|----------------------------------------------------|
B|----------------------------------------------------|
G|----------------------------------------------------|
D|----0--0-0-0--0-0-0--0-0-0--0-0-0--0-0-0--0-0-0-----|
A|12\-0--0-0-0--0-0-0--0-0-0--0-0-0--0-0-0--0-0-0-----|
D|12\-0--0-0-0--0-0-0--0-0-0--0-0-0--0-0-0--0-0-0-----|
      .  . . .  . . .  . . .  . . .  . . .  . . .

1:54
e|----------------------------------------------------|
B|----------------------------------------------------|
G|----------------------------------------------------|
D|----------------------------------------------------|
A|22222222-33333333-55555555-(1)----------------------|
D|----------------------------------------------------|

1:58
e|----------------------------------------------------|
B|----------------------------------------------------|
G|----------------------------------------------------|
D|0---0--0-0-0--0-0-0--0-0-0--0-0--0-0-0--0-0---------|
A|0---0--0-0-0--0-0-0--0-0-0--0-0--0-0-0--0-0---------|
D|0---0--0-0-0--0-0-0--0-0-0--0-0--0-0-0--0-0---------|
  .   .  . . .  . . .  . . .  . .  . . .  . .

2:13
e|----------------------------------------------------|
B|----------------------------------------------------|
G|----------------------------------------------------|
D|----------------------------------------------------|
A|22222222-33333333-55555555-(1)----------------------|
D|----------------------------------------------------|

2:49
e|---------------13-15-16-18b-16-15-13----------------|
B|------------16-----------------------15-13-16-------|
G|---------14-----------------------------------------|
D|------15--------------------------------------------|
A|12-16-----------------------------------------------|
D|----------------------------------------------------|

2:51
e|----------------------------------------------------|
B|181818181818-20-171717171717-19-161616161616-18-----|
G|----------------------------------------------------|
D|----------------------------------------------------|
A|----------------------------------------------------|
D|----------------------------------------------------|

2:53
e|----------------------------------------------------|
B|15----13----12-14-16-15-13--------------------------|
G|---16----14-----------------------------------------|
D|----------------------------------------------------|
A|----------------------------------------------------|
D|----------------------------------------------------|

| /  Slide To
| \  Slide From
| .  Palm Mute
| () Harmonic
| h  Hammer-On
| p  Pull-Off
| b  Bend
===============================================================================
Tap to rate this tab
# A B C D E F G H I J K L M N O P Q R S T U V W X Y Z