Song name
# A B C D E F G H I J K L M N O P Q R S T U V W X Y Z

Here I Come Falling - Tell The World Goodbye tab

This is a real quick tab. Feed free to leave comments or suggestions as necessary, keep rockiní (:





Guitar 1

e|--------------------------------------------------|
B|--------------------------------------------------|
G|-6-6-6-7-7-7-8-8--6-6-6-7-7-7-8-8-----------------| x2
D|-7-7-7-7-7-7-7-7--7-7-7-7-7-7-7-7-----------------|
A|--------------------------------------------------|
D|--------------------------------------------------|

e|--------------------------------------------------|
B|--------------------------------------------------|
G|-12-12-12-11-11-11-9-9-9-14-14-14-12-12-12-11-11--|
D|-9--9--9--9--9--9--9-9-9-9--9--9--9--9--9--9--9---|
A|--------------------------------------------------|
D|--------------------------------------------------|


Guitar 2

e|--------------------------------------------------|
B|--------------------------------------------------|
G|--------------------------------------------------|
D|-9------5------0-------7--------------------------|
A|-9-x16--5-x16--0-x16---7-x16----------------------|
D|-9------5------0-------7--------------------------|
Tap to rate this tab
# A B C D E F G H I J K L M N O P Q R S T U V W X Y Z