Heres To Adventure - Oh Pioneers tab

-----------------------------------------------------------------
Oh Pioneers - Heres To Adventure
-----------------------------------------------------------------
Tabbed by: David Tamplen
Email: davidbtamplen@yahoo.com
Tuning: Drop D (It is supposed to be in open D I think. But I have Transposed this part.)

E|---------------------------------------------------------------------------|
B|---------------------------------------------------------------------------|
G|---------------------------------------------------------------------------|
D|-h11p0-h11p0-h13p0-h11p0-h11p0-h13p0-h11p0-h11p0-h11p0-h11p0-h11p0-h13p0---|
A|---------------------------------------------------------------------------|
D|---------------------------------------------------------------------------|

E|---------------------------------------------------------------------------|
B|---------------------------------------------------------------------------|
G|---------------------------------------------------------------------------|
D|-h11p0-h11p0-h13p0-h11p0-h11p0-h11p0-h11p0-h13p0-h11p0-h11p0-h13p0-h11p0---|
A|---------------------------------------------------------------------------|
D|---------------------------------------------------------------------------|

E|---------------------------------------------------------------------------|
B|---------------------------------------------------------------------------|
G|---------------------------------------------------------------------------|
D|-h11p0-h11p0-h11p0-h11p0-h13p0-h11p0-h11p0-h11p0-h13p0-h11p0-h11p0-h11p0---|
A|---------------------------------------------------------------------------|
D|---------------------------------------------------------------------------|

E|---------------------------------------------------------------------------|
B|---------------------------------------------------------------------------|
G|---------------------------------------------------------------------------|
D|-h13p0-h11p0-h11p0-h13p0-h11p0-h11p0-h11p0-h13p0-h11p0-h11p0-h11p0-h11p0---|
A|---------------------------------------------------------------------------|
D|---------------------------------------------------------------------------|

E|---------------------------------------------------------------------------|
B|---------------------------------------------------------------------------|
G|---------------------------------------------------------------------------|
D|-h13p0-h11p0-h11p0-h13p0-h11p0-h11p0-h11p0-h13p0-h11p0-h11p0-h11p0-h11p0---|
A|---------------------------------------------------------------------------|
D|---------------------------------------------------------------------------|

E|---------------------------------------------------------------------------|
B|---------------------------------------------------------------------------|
G|---------------------------------------------------------------------------|
D|-h11p0-h11p0-h13p0-h11p0-h11p0-h13p0-h11p0-h11p0-h11p0-h11p0-h11p0-h13p0---|
A|---------------------------------------------------------------------------|
D|---------------------------------------------------------------------------|
( I know This part is incorrect, But holy shit this is hard to tab.)

E|---------------------------------------------------------------|
B|---------------------------------------------------------------|
G|---------------------------------------------------------------|
D|-----11p-10-11p-10-----11p-10-11p-10---------------------------|
A|-------------------------------------11-11-11-11---------------|
E|-0-0---------------0-0-----------------------------------------|(x2)

E|---------------------------------------------------------------|
B|---------------------------------------------------------------|
G|---------------------------------------------------------------|
D|---------------------------------11-11-11-11-------------------|
A|-----11---11h-13-----11---11h-13-------------------------------|
E|-0-0----0--------0-0----0--------------------------------------|(x2)

E|---------------------------------------------------------------|
B|---------------------------------------------------------------|
G|---------------------------------------------------------------|
D|-----11p-10-11p-10-----11p-10-11p-10---------------------------|
A|-------------------------------------11-11-11-11---------------|
E|-0-0---------------0-0-----------------------------------------|(x2)

E|---------------------------------------------------------------|
B|---------------------------------------------------------------|
G|---------------------------------------------------------------|
D|---------------------------------11-11-11-11-------------------|
A|-----11---11h-13-----11---11h-13-------------------------------|
E|-0-0----0--------0-0----0--------------------------------------|(x2)


Tablature Notation

h - hammer on
p - pull off
b - bend string up
r - release bend
/ - slide up
\ - slide down
v - vibrato (or ~)
t - right hand tap
x - play 'note' with heavy muting

All Rights Reserved to http://www.myspace.com/herestoadventure
Tap to rate this tab
 
# A B C D E F G H I J K L M N O P Q R S T U V W X Y Z