Song name
# A B C D E F G H I J K L M N O P Q R S T U V W X Y Z

Herman And Gautes Band - No Cookies tab

INTRO
1------------------------------------------------------------------------------
2------------------------------------------------------------------------------
3------------------------------------------------------------------------------
4------------------------------------------------------------------------------
5-11-11-11-11-11-11-11-11---11-11-11-11-11-11-11-11--99999999--99999999--------
6--9--9--9--9--9--9--9--9---0--0--0--0--0--0--0--0---77777777--66666666--------
 
Verse
1------------------------------------------------------------------------------
2------------------------------------------------------------------------------
3------------------------------------------------------------------------------
4------------------------------------------------------------------------------
5-11-11-11-11-11-11-11-11---11-11-11-11-11-11-11-11--99999999--99999999--------
6--9--9--9--9--9--9--9--9---8--8--8--8--8--8--8--8---77777777--66666666--------
 
Chorus
1------------------------------------------------------------------------------
2------------------------------------------------------------------------------
3------------------------------------------------------------------------------
4------------------------------------------------------------------------------
5-11-11-11-11-11-11-11-11---11-11-11-11---9999--77777777---44444444------------
6--9--9--9--9--9--9--9--9---8--8--8--8----7777--55555555---22222222------------

Outro 
1------------------------------------------------------------------------------
2------------------------------------------------------------------------------
3------------------------------------------------------------------------------
4------------------------------------------------------------------------------
5-7777-7777-7777-7777-7777-7777-9999-7777-7777-7777-7777-7777-7777-7777------%-
6-0000-5555-0000-5555-0000-5555-7777-5555-0000-5555-0000-5555-0000-5555------%-

1------------------------------------------------------------------------------
2------------------------------------------------------------------------------
3------------------------------------------------------------------------------
4------------------------------------------------------------------------------
5-99999999--777777-9-14--------------------------------------------------------
6-77777777--555555-7-12--------------------------------------------------------
Tap to rate this tab
 
# A B C D E F G H I J K L M N O P Q R S T U V W X Y Z