Song name
# A B C D E F G H I J K L M N O P Q R S T U V W X Y Z

Herman Brood - Saturday Night tab

Herman Brood - Saturday Night                   2 august 2007

E --------------|--------------|
B 3-----6-------|8-----3-------|
G 2-----5-------|7-----2-------|
D --000-----000-|--000-----000-|  10x  
A --------------|--------------|
E --------------|--------------|

E --------------|--------------|
B 2---5---------|4---2---------|
G 2---5---------|4---2---------|
D 2---5---------|4---2---------|  2X
A 0---0---000---|0---0---000---|
E --------------|--------------|

E --------------|--------------|
B 3-----6-------|8-----3-------|
G 2-----5-------|7-----2-------|
D --000-----000-|--000-----000-|  5x  
A --------------|--------------|
E --------------|--------------|

E --------------|--------------|
B 2---5---------|4---2---------|
G 2---5---------|4---2---------|
D 2---5---------|4---2---------|  2X
A 0---0---000---|0---0---000---|
E --------------|--------------|

E --------------|--------------|
B 3-----6-------|8-----3-------|
G 2-----5-------|7-----2-------|
D --000-----000-|--000-----000-|  4x  
A --------------|--------------|
E --------------|--------------|

E --------------|--------------|
B 2---5---------|4---2---------|
G 2---5---------|4---2---------|
D 2---5---------|4---2---------|  7X
A 0---0---000---|0---0---000---|
E --------------|--------------|

E --------------|--------------|
B 3-----6-------|8-----3-------|
G 2-----5-------|7-----2-------|
D --000-----000-|--000-----000-|  4x  
A --------------|--------------|
E --------------|--------------|

E --------------|--------------|
B 2---5---------|4---2---------|
G 2---5---------|4---2---------|
D 2---5---------|4---2---------|  2X
A 0---0---000---|0---0---000---|
E --------------|--------------|

E ---0----------|--------------|
B --3-3-----3---|---3----------|
G -2---2---2-2--|--0-0---------| 
D 0-------0---0-|-0---0--------|  7X
A -------3------|2------1-0----|
E --------------|-----------3-1|

Good luck!
Tap to rate this tab
 
# A B C D E F G H I J K L M N O P Q R S T U V W X Y Z