Song name
# A B C D E F G H I J K L M N O P Q R S T U V W X Y Z

Herman Brood - Never Be Clever tab

Intro (Also used in the Chorus):
-----
 
     A  E   F#m    D               A
e|---5--4---2-2---2-----------------|
B|---5--5---2-2---3---3-3-2---3-3-2-|
G|---6--4---2-2---2---2-2-2---2-2-2-|
D|---7------4-2---4---4-4-2---4-4-2-|
A|-0--------4-----------------------|
E|----------2-----------------------|

     A  E   F#m   D           A
e|---5--4---2-2---2-----------------|----------|
B|---5--5---2-2---3---3-3-2---2-----|----------|
G|---6--4---2-2---2---2-2-2---2-----|----------|
D|---7------4-2---4---4-4-2---2-----|----------|
A|-0--------4-----------------------|-3-4-0----|
E|----------2-----------------------|----------|
 

First verse:
------------

A                    E                                    
Going down the line, my head up high

F#min              D            A
Wonder why its so hard to feel fine

A              E                    
Got all I need Plastic teeth

F#min                          F#min     A  
A pocket full of speed and Im cool with the heat

    E
I got a groovy little lady seems Im waisting het time

      F#min            D             A
Got a hit and a bullet still back in crime

E                               
People say I used to do better 

  F#min                   D          A
I guess Im gonna have to get myself together



Chorus: 2x
---------- 

         A         E   F#min
But Ill never Ooh aah aah

     D        A
Ill never be clever

Second verse (same chords):
-------------

Some say Im suicidal
With a sense of humour
Some say Im faking it all
Trying to start rumours
Some people say a moment lasts longer
I find myself at home
Settled down, write a song
Ill love to hang around
In black peoples places
Fascinated staring at faces
Holy mama, make me concentrate
Got to write a song
And I got to create


Solo:
-----

e[------------------------------------------------------------------]
B[-----12-13-15-13-12-------12----------12-13-15-15h17p15-13-12-----]
G[--14----------------14-12----14----14-------------------------14--]
D[------------------------------------------------------------------]
A[------------------------------------------------------------------]
E[------------------------------------------------------------------]

e[-----------------------------------------------12-15-15/19-17--]
B[-----12-13-15-13-12-------12----------12-13-15-----------------]
G[--14----------------14-12----14----14--------------------------]
D[---------------------------------------------------------------]
A[---------------------------------------------------------------]
E[---------------------------------------------------------------]

e[--17/19/20/22\20\19\17\15/19\17---17/19/20/22-22b24r22\20\19\17--]
B[-----------------------------------------------------------------]
G[-----------------------------------------------------------------]
D[-----------------------------------------------------------------]
A[-----------------------------------------------------------------]
E[-----------------------------------------------------------------]


e[--17/19/20/22\20\19\17\15/19\17---17/19/20/22-22b24r22\20\19--]
B[--------------------------------------------------------------]
G[--------------------------------------------------------------]
D[--------------------------------------------------------------]
A[--------------------------------------------------------------]
E[--------------------------------------------------------------]

Outro solo:

e[----------------------------------------------]
B[--7-5--------------15b17///////r15p13---------]
G[------6--------------------------------14-14--]
D[--------7-------------------------------------]
A[----------------------------------------------]
E[----------------------------------------------]

e[--------------------------------]
B[--7-5---------------------------]
G[------6------2-2-2-2-2-2-2-2-2--]
D[--------7----2-2-2-2-2-2-2-2-2--]
A[-------------0-0-0-0-0-0-0-0-0--]
E[--------------------------------]



Thanks to DanielSan, edited by No_way_back
Tap to rate this tab
# A B C D E F G H I J K L M N O P Q R S T U V W X Y Z