Song name
# A B C D E F G H I J K L M N O P Q R S T U V W X Y Z

Herman Dune - Be A Doll And Take My Heart Acoustic tab

Artist: Herman Dune
Song: Be A Doll And Take My Heart (acoustic for GentleMec)
Video: http://www.youtube.com/watch?v=44ANfQ9yDas
Transcription: satir3, satir3@net.hr

Tuning: standard
Capo: 2nd fret

Chords:
C: x32010
G: 320003
D: xx0232
Em: 022000
C: x35553 (in break)
G: 355433 (in break)
D: x57775 (in break)
Em: x79987 (in break)


Intro: C G D Em x 4

Verse: (palm mute the chords)
C                        G     D  Em                    
You make a mess of your hair 
C                   G  D   Em
When you are sad
C                        G    D  Em
I try to make you fell better 
C                  G  D Em
When you feel bad
Em                                   D   Dsus4 
I'll kiss you on the forehead for a start

Chorus:
C                  G            D   Em
Be a doll and take my heart
C                  G            D   Em
Be a doll and take my heart
C                  G            D   Em
Be a doll and take my heart
C                  G            D   Em
Be a doll and take my heart

Verse:
From the Last Frontier
To The Sunshine State
From Volunteer 
To the Empire State
We'll ride around together and never apart

Chorus:
Be a doll and Take my heart
Be a doll and take my heart
Be a doll and take my heart
Be a doll and take my heart

Break: (use barre chords)
C   G   D   Em  x4

Verse:
May you live 
And not die
May you never love
Another guy
May there always be a fire from our spark

Chorus:
Be a doll and take my heart
Be a doll and take my heart
Be a doll and take my heart
Be a doll and take my heart
Be a doll and take my heart
Be a doll and take my heart
Be a doll and take my heart


Ending:
e-|----------------------------------------------------|
B-|----------------------------------------------------|
G-|----------------------------------------------------|
D-|----------------------------------------------------|
A-|--3-2-3-2-------------------------------------------|
E-|----------3-3--5-5-5--7-7-7-------------------------|

e-|----------------------------------------------------|
B-|----------------------------------------------------|
G-|----------------------------------------------------|
D-|----------------------------------------------------|
A-|--3-2-3-2-------------------------------------------|
E-|----------3-3--5-5-5--3-3-3-------------------------|

e-|----------------------------------------------------|
B-|----------------------------------------------------|
G-|----------------------------------------------------|
D-|----------------------------------------------------|
A-|--3-2-3-2-------------------------------------------|
E-|----------3-3--5-5-5--7-7-7-------------------------|

e-|----------3-3---------------------------------------|
B-|----------0-0---------------------------------------|
G-|----------0-0---------------------------------------|
D-|----------0-0---------------------------------------|
A-|--3-2-3-2-2-2---------------------------------------|
E-|----------3-3---------------------------------------|

Be a doll and take my heart
Be a doll and take my heart
Be a doll and take my heart
Tap to rate this tab
# A B C D E F G H I J K L M N O P Q R S T U V W X Y Z