Song name
# A B C D E F G H I J K L M N O P Q R S T U V W X Y Z

Herman Dune - Not On Top chords

The song is played with drums, bass guitar and keyboard, but I've transcribed the 
keyboard solo for guiter below.


                  A
I feel a little strange
                                      E
Feels like i'll never get my shit together
             F#m
27 and I'm fucked
           A                E
Well it's ten years from teenage
                A
And that's a freaking lot

Same deal here:

 I think I'm getting old
 I thought I never say
 Then I bought nevermind
 And it changed my life some 15 years ago
 I thought that my little sister
 Would have never ever made it out of High School
 And be looking for job
 Yeah right

Chorus:
         D
 Not on top
   A   E          A
 Baby I'm not on top
 x2

Solo:
------------------------------------------------------------------------------------|
----------------7-5-7-5-7-5-7------------------------------------------6-4-6-4-6-4--|
6----(X2)---------------7---(X2)--6-4-6-4-6-4-6-------------------------------------|
(X2)------------------------7---------------------------------------------7---------|
------------------------------------------------------------------------------------|
------------------------------------------------------------------------------------|




----------------------------------------------|
----------------------------------------------|
-4-2-4-2-4-2-4-1--(X2)------------------------|
----------------------------------------------|
----------------------------------------------|
----------------------------------------------|
Tap to rate this tab
# A B C D E F G H I J K L M N O P Q R S T U V W X Y Z