Song name
# A B C D E F G H I J K L M N O P Q R S T U V W X Y Z

Hermano - Our Desert Home tab

First tab. Tone deaf I am. Go ahead and fix

e|------------------------------------------------------------------|
B|------------------------------------------------------------------|
G|------------------------------------------------------------------|
D|------------------------------------------------------------------|
A|-----------------------------0-0----------------------------------|
E|---0-0-12-0-12-0-0-10-0-10~--0-0-12p10p0-10-12~-------------------|

e|--------------------------------------------------------------------|
B|--------------------------------------------------------------------|
G|--------------------------------------------------------------------|
D|--------------------------------------------------------------------|
A|-----------------------------00-66-5-3~-----------------------------|
E|---0-0-12-0-12-0-0-10-0-10~--00-66-5-3~-----------------------------|

e|------------------------------------------------------------------|
B|------------------------------------------------------------------|
G|------------------------------------------------------------------|
D|------------------------------------------------------------------|
A|-----------------------------0-0----------------------------------|
E|---0-0-12-0-12-0-0-10-0-10~--0-0-12p10p0-10-12~-------------------|

e|--------------------------------------------------------------------|
B|--------------------------------------------------------------------|
G|--------------------------------------------------------------------|
D|--------------------------------------------------------------------|
A|---------------------------0-0-12-12--------------------------------|
E|---0-0-12-0-12-0-0-10-0-10-0-0-12-12--------------------------------|
Tap to rate this tab
# A B C D E F G H I J K L M N O P Q R S T U V W X Y Z