Song name
# A B C D E F G H I J K L M N O P Q R S T U V W X Y Z

Hermans Hermits - Im Henry 8th I Am tab

Help us improve GuitareTab! Take a short survey!
This is the electric guitar solo from "I'm Henry VIII, I Am".


e-4/5---5-----------5----------------5-----------------------------------|
B-4/5---5---7---5---5---7---h5---7---5-----------------------------------|
G-----------7---6--------------------------------------------------------|
D------------------------------------------------------------------------|
A------------------------------------------------------------------------|
E------------------------------------------------------------------------|


e------------------------------------------------------------------------|
B-6/7---5---7---8\7---5-------5---5--------------------------------------|
G-6/7---------------------7---6---6---7---5/6----------------------------|
D-------------------------------------7---6/7----------------------------|
A------------------------------------------------------------------------|
E------------------------------------------------------------------------|


e------------------------------------------------------------------------|
B-7---------5---7-------5---8\7---5--------------------------------------|
G-7---5/6-------7---6----------------------------------------------------|
D------------------------------------------------------------------------|
A------------------------------------------------------------------------|
E------------------------------------------------------------------------|


e--------------8/9---9---9---7---9---9---p7------------------------------|
B-7---9---p7---8/9---9---9---9---9---9----9------------------------------|
G-8---8----8-------------------------------------------------------------|
D------------------------------------------------------------------------|
A------------------------------------------------------------------------|
E------------------------------------------------------------------------|


e-5---------------------9---h7-------------------------------------------|
B-5---7---5---8/9---9---9----9-------------------------------------------|
G-----7---6---8/9---9---9----9-------------------------------------------|
D------------------------------------------------------------------------|
A------------------------------------------------------------------------|
E------------------------------------------------------------------------|


e-----------7---h5---8/9---7---------------------------------------------|
B-6/7---7---7----7---8/9---9---------------------------------------------|
G-6/7---7---7----7-------------------------------------------------------|
D------------------------------------------------------------------------|
A------------------------------------------------------------------------|
E------------------------------------------------------------------------|


e-5---7---9---5---7---4---5----------------------------------------------|
B-------------------------7---7---7--------------------------------------|
G-----------------------------8------------------------------------------|
D------------------------------------------------------------------------|
A------------------------------------------------------------------------|
E------------------------------------------------------------------------|


e-9----9---------7---7---5-----------------------------------------------|
B-10---10---10---9---9---5-----------------------------------------------|
G-----------11-----------------------------------------------------------|
D------------------------------------------------------------------------|
A------------------------------------------------------------------------|
E------------------------------------------------------------------------|
Related for Im Henry 8th I Am tab