Song name
# A B C D E F G H I J K L M N O P Q R S T U V W X Y Z

Hermans Hermits - Rattler tab

Help us improve GuitareTab! Take a short survey!
Intro
E-12-------12------12-------------|
B----14------15-------15----------|
G-------14------14----------------|
D---------------------------------|play twice
A---------------------------------|
E---------------------------------|
Verse:
  A                         D          A         D        A/C#
E------12----------12---------9---------12---------9---------12--------|
B---------14----------14--------10---------14--------10---------14-----|
G------------14----------14--------9----------14--------9----------14--|
D---------------------------7--------------------7---------------------|
A---12----------12-------------------12-------------------16-----------|
E----------------------------------------------------------------------|
   E/B         A
E----11----------12----------12-----------|
B-------11----------14----------14--------|
G----------12----------14----------14-----|
D-----------------------------------------|play the verse twice
A-14----------12----------12--------------|
E-----------------------------------------|

  Bm                                             A
E----14----------14----------14----------14---------12---------12---------|
B-------15----------15----------15----------15---------14---------14------|
G----------16----------16----------16----------16---------14---------14---|
D-16----------16----------16----------16----------------------------------|
A-------------------------------------------------12---------12-----------|
E-------------------------------------------------------------------------|
Play this twice^

Ba ba ba part:
E---------|                                E---------|
B---------|                                B---------|
G---------|play that twice, then play this:G---------|
D-2-2-4-4-|                                D-4-4-2-0-|
A-0-0-0-0-|                                A-0-0-0-0-|
E---------|                                E---------|

then play the whole Ba ba ba part again.

another tab from santyclaws
Related for Rattler tab