Song name
# A B C D E F G H I J K L M N O P Q R S T U V W X Y Z

Hero - R2-d2 tab

Hero , R2-D2.
Tabbed by Markus Johnson , mj85eagle@hotmail.com.
  
R2-D2
Hero

INTRO
|------4---------4--------4--------4-------------4--------4--------4--------4--------------
|----------2---------2--------2--------2-------------2---------2--------2--------2---------
|--------------3---------3--------3--------3--------------3---------3--------3--------3----
|-4----------------------------------------------4--------------------------------------------
|----------------------------------------------------------------------------------------------
|----------------------------------------------------------------------------------------------
                                                                                                                               Last time:
----------------------------------------------------------------------------------------------|                4
----2--------2--------2-------2-------------2-------2-----------7-------7-----------------|                2
-------2--------2--------2-------2-------------2-------2-----------6-------6--------------|                3
----------4--------4--------4-------4----3--------3------3-----------8-------8------------|               4
-4-------------------------------------------------------------6-----------------------------|                x
----------------------------------------------------------------------------------------------|                x


CHORUS  (Bass Verse)
|-------------------------------|
|-------------------------------|
|-9---9---9-------------------|
|-9---9---9---8---8---8---8-|
|-7---7---7---8---8---8---8-|
|--------------6---6---6---6--|       *Bass Plays bottom note


VERSE
|-------------------------------|
|-------------------------------|
|-------------------------------|
|-----------9---8~~~~~~----|
|-7~~~~----------------------|
|-------------------------------|


INTERLUDE
|------------------------|
|------------------------|
|-9----------------------|
|-9-----8-----9----8---|
|-7-----8-----9----8---|
|-------6-----7----6----|


Intro----- ------ 4x
Chorus (Bass)-1x
Chorus----------4x
Verse------------8x
Chorus----------8x
Verse------------8x
Chorus----------8x
Interlude--------4x
Chorus----------4x


 
:: Ultimate Guitar Archive :: 
http://www.ultimate-guitar.com 

Tap to rate this tab
 
# A B C D E F G H I J K L M N O P Q R S T U V W X Y Z