Heroes And Zeros - Into The Light tab

-------------------------------------------------------------------------------
			     INTO THE LIGHT - Heroes & Zeros
-------------------------------------------------------------------------------
http://www.heroesandzeros.no/
http://www.myspace.com/heroeszeros

Tabbed by: Adam K.
Email: catchingtheimpossible@hotmail.com

Tuning: Standard EADGBe

Simplyfied Tab Version
Not 100 % sure about this, but it sounds good.
Great rock-out song off the Album "Strange Constellations".
Great Band from Lillesand, Norway. Fast strum timing (1/8), maybe power chords are useful.
There are more tone/ chord changes, but i figured these would be enough for the beginning.
If anyone could figure out the Bass Guitar Notes for this more accurately, that would be awesome.
Please rate and enjoy.

Intro: Rhythm Guitar 
e|-------12--12--12--12-----12--12--12--12---|
B|------12--12--12--12-----12--12--12--12----|
G|-----13--13--13--13-----14--14--14--14-----| x2
D|----14--14--14--14-----14--14--14--14------|
A|---14--14--14--14-----14--14--14--14-------|
E|--12--12--12--12-----12--12--12--12--------|

then Rhythm & Lead simultaneously: Rhythm G.
e|-------13--13--12---8--10-------10---8---9--10---|
B|------13--13--12---8--10-------10---8---9--10----| x3
G|-----14--14--13---9--11-------11---9--10--11-----|
D|----15--15--14--10--12-------12--10--11--12------|
A|---15--15--14--10--12-------12--10--11--12-------|
E|--13--13--12--8---10-------10--8---9---10--------|

e|-------13--13----12---8--6-|
B|------13--13----12---8--6--|x1
G|-----14--14----13---9--7---|
D|----15--15----14--10--8----|
A|---15--15----14--10--8-----|
E|--13--13----12--8---6------|

  Lead Guitar:
e|-13-13--12-8-10--10-8-9-10---|
B|-----------------------------| x3
G|-----------------------------|
D|-----------------------------|
A|-----------------------------|
E|-----------------------------|

e|-13-13--12-8-6-|
B|---------------|x1
G|---------------|
D|---------------|
A|---------------|
E|---------------|


Verse: Rhythm Guitar only
e|-------0--0--0--0-----5--5--5--5-----3--3--3--3--|
B|------0--0--0--0-----5--5--5--5-----3--3--3--3---|
G|-----1--1--1--1-----6--6--6--6-----4--4--4--4----|
D|----2--2--2--2-----7--7--7--7-----5--5--5--5-----|
A|---2--2--2--2-----7--7--7--7-----5--5--5--5------|
E|--0--0--0--0-----5--5--5--5-----3--3--3--3-------|
"Hey, I wanna be with you, despite the stupid things that I've said..."
"Hey, you've got Eyes like Birds of Prey, they make my shy away..." 

e|-------1--1--1--1----3--3--3--3-------|
B|------1--1--1--1----3--3--3--3--------|
G|-----2--2--2--2----4--4--4--4---------|
D|----3--3--3--3----5--5--5--5----------|
A|---3--3--3--3----5--5--5--5-----------|
E|--1--1--1--1----3--3--3--3------------|
"...it was just that my Coolness got scared..."
"...you're gonna tear my Heart out..."


1st Chorus, Instrumental only, Rhythm G.:
e|-------13--13--12---8--10-------10---8---9--10---|
B|------13--13--12---8--10-------10---8---9--10----| x3
G|-----14--14--13---9--11-------11---9--10--11-----|
D|----15--15--14--10--12-------12--10--11--12------|
A|---15--15--14--10--12-------12--10--11--12-------|
E|--13--13--12--8---10-------10--8---9---10--------|

e|-------13--13----12---8--6-|
B|------13--13----12---8--6--|x1
G|-----14--14----13---9--7---|
D|----15--15----14--10--8----|
A|---15--15----14--10--8-----|
E|--13--13----12--8---6------|

  Lead Guitar:
e|-13-13--12-8-10--10-8-9-10---|
B|-----------------------------| x3
G|-----------------------------|
D|-----------------------------|
A|-----------------------------|
E|-----------------------------|

e|-13-13--12-8-6-|
B|---------------|x1
G|---------------|
D|---------------|
A|---------------|
E|---------------|

2nd Verse: Verse Tab
e|-------0--0--0--0-----5--5--5--5-----3--3--3--3--|
B|------0--0--0--0-----5--5--5--5-----3--3--3--3---|
G|-----1--1--1--1-----6--6--6--6-----4--4--4--4----|
D|----2--2--2--2-----7--7--7--7-----5--5--5--5-----|
A|---2--2--2--2-----7--7--7--7-----5--5--5--5------|
E|--0--0--0--0-----5--5--5--5-----3--3--3--3-------|
"Hey, I wanna be with you, despite the stupid things that you do..."
"Hey, this insane flesh has failed, let's burst this ribcage jail, oh..."

e|-------1--1--1--1----3--3--3--3-------|
B|------1--1--1--1----3--3--3--3--------|
G|-----2--2--2--2----4--4--4--4---------|
D|----3--3--3--3----5--5--5--5----------|
A|---3--3--3--3----5--5--5--5-----------|
E|--1--1--1--1----3--3--3--3------------|
"...I love the madness in you..."
"...and then we'll be together..."


Chorus: play 3x
e|-------7--7--7--7------5--5--5--5-------12--12--12--12--|
B|------7--7--7--7------5--5--5--5-------12--12--12--12---|
G|-----8--8--8--8------6--6--6--6-------13--13--13--13----|
D|----9--9--9--9------7--7--7--7-------14--14--14--14-----|
A|---9--9--9--9------7--7--7--7-------14--14--14--14------|
E|--7--7--7--7------5--5--5--5-------12--12--12--12-------|
"Let's carry on, 	...into the Light..."

e|------------3--3--3--3------5--5--5--5--|
B|-----------3--3--3--3------5--5--5--5---|
G|----------4--4--4--4------6--6--6--6----|
D|---------5--5--5--5------7--7--7--7-----|
A|--------5--5--5--5------7--7--7--7------|
E|-------3--3--3--3------5--5--5--5-------|
"...for all we know..." (BG: "Into the Light...")


Chorus Interlude: Rhythm Guitar (same as Intro)
e|-------12--12--12--12------12--12--12--12---|
B|------12--12--12--12------12--12--12--12----|
G|-----13--13--13--13------14--14--14--14-----| x2
D|----14--14--14--14------14--14--14--14------|
A|---14--14--14--14------14--14--14--14-------|
E|--12--12--12--12------12--12--12--12--------|

then Rhythm & Lead simultaneously: Rhythm G.
e|---------13---12---10----8---10--10------15---14---12---10----8---8--|
B|--------13---12---10----8---10--10------15---14---12---10----8---8---|
G|-------14---13---11----9---11--11------16---15---13---11----9---9----|
D|------15---14---12---10---12--12------17---16---14---12---10--10-----|
A|-----15---14---12---10---12--12------17---16---14---12---10--10------|
E|----13---12---10---8----10--10------15---14---12---10---8---8--------|

  Lead Guitar:
e|----13-12--10-8--10-10-------------15-14-12-10-8-8--|
B|----------------------------------------------------|
G|----------------------------------------------------|
D|----------------------------------------------------|
A|----------------------------------------------------|
E|----------------------------------------------------|

2nd Verse again

Chorus again: x4
"Let's carry on, into the Light..."
"for all we know..." (BG: "Into the Light...")

  Interlude: Rhythm Guitar:
e|-------13--13--12---8--10-------10---8---9--10---|
B|------13--13--12---8--10-------10---8---9--10----| x4
G|-----14--14--13---9--11-------11---9--10--11-----|
D|----15--15--14--10--12-------12--10--11--12------|
A|---15--15--14--10--12-------12--10--11--12-------|
E|--13--13--12--8---10-------10--8---9---10--------|
"...Peace will find us there..." (x1)

  Lead Guitar:
e|-13-13--12-8-10--10-8-9-10---|
B|-----------------------------| x4
G|-----------------------------|
D|-----------------------------|
A|-----------------------------|
E|-----------------------------|


  End Song with: Rhythm Guitar 
e|-------12--12--12--12-----12--12--12--12---|
B|------12--12--12--12-----12--12--12--12----|
G|-----13--13--13--13-----14--14--14--14-----| x4
D|----14--14--14--14-----14--14--14--14------|
A|---14--14--14--14-----14--14--14--14-------|
E|--12--12--12--12-----12--12--12--12--------|


e|-------13--13--13--13-----13--13--13--13---|
B|------13--13--13--13-----13--13--13--13----|
G|-----14--14--14--14-----15--15--15--15-----| x4
D|----15--15--15--15-----15--15--15--15------|
A|---15--15--15--15-----15--15--15--15-------|
E|--13--13--13--13-----13--13--13--13--------|

mail me anytime, for Lyrics only (.txt). Comments/ Corrections welcome.
************************************

| /   slide up
| \   slide down
| h   hammer-on
| p   pull-off
| ~   vibrato
| +   harmonic
| x   Mute note
| b   Bend
| pb  Pre-bend
| br  Bend release
| pbr Pre-bend release
| brb Bend release bend

************************************
Tap to rate this tab
 
# A B C D E F G H I J K L M N O P Q R S T U V W X Y Z