Song name
# A B C D E F G H I J K L M N O P Q R S T U V W X Y Z

Heroes Del Silencio - Oracion tab

Help us improve GuitareTab! Take a short survey!
este cancion empieza asi
el primer verso va asi
--|--|-----------------| --|--|------------|
--|--|-----------------| --|--|------------|
-2|2-|-----------------| -2|2-|------------|
--|-2|2-3-2-3-2-3-2-3-2| --|-2|2-3-3-3-2-3-|

despues entra el coro
-------|---|----|----|-----|----|
-------|---|----|----|-----|----|
-------|---|-2-2|2-0-|-----|-2-2|2 veces
0-1-2-3|3-2|2---|---2|3-3-2|2---|

despues entra un puente
------------|------------|----------------------|
------------|------------|----------------------|
------------|------------|2-2-2-2-----2-2-2-2---|
3-3-3-3--3-3|2-2-2-2--2-2|-----3-3-2-------3-3-2|

------------|------------|----------------------|
------------|------------|----------------------|
------------|------------|2-2-2-2-2-2-----------|
3-3-3-3--3-3|2-2-2-2--2-2|-----------0h2h3-3-3-3|

despues entra el sugundo verso con la mismas notas que el 1 verso 
--|--|-----------------| --|--|------------|
--|--|-----------------| --|--|------------|
-2|2-|-----------------| -2|2-|------------|
--|-2|2-3-2-3-2-3-2-3-2| --|-2|2-3-3-3-2-3-|

despues entra el 2do. coro con la mismas notas que el 1 coro
-------|---|----|----|-----|----|
-------|---|----|----|-----|----|
-------|---|-2-2|2-0-|-----|-2-2|2 veces
0-1-2-3|3-2|2---|---2|3-3-2|2---|

depues de esto entra otro puente diferente al 1
-------|----|------------|--------|----|--------|
-------|----|------------|--------|----|--------|
-------|----|------------|--------|----|--------|
0-1-2-3|-3-2|-2-3-2-3-2-3|-0-1-2-3|-3-2|-2-3-3-3|

despues entra el 3do. coro con la mismas notas que el 1 coro
-------|---|----|----|-----|----|
-------|---|----|----|-----|----|
-------|---|-2-2|2-0-|-----|-2-2|2 veces
0-1-2-3|3-2|2---|---2|3-3-2|2---|

despues entra de nuevo el primer puente 
------------|------------|----------------------|
------------|------------|----------------------|
------------|------------|2-2-2-2-----2-2-2-2---|
3-3-3-3--3-3|2-2-2-2--2-2|-----3-3-2-------3-3-2|

------------|------------|----------------------|
------------|------------|----------------------|
------------|------------|2-2-2-2-2-2-----------|
3-3-3-3--3-3|2-2-2-2--2-2|-----------0h2h3-3-3-3|

depues de esto entra el solo y el bajo ase esto
------------|---------|--------|
------------|---------|--------|
------------|---------|2(8 vec)|3 veces
-3(16 veces)|-2(8 vec)|--------|

------------|---------|--------|---------|--------|
------------|---------|--------|---------|--------|
------------|---------|2(8 vec)|3(16 vec)|--------|
-3(16 veces)|-2(8 vec)|--------|---------|3(8 vec)|

despues entra el ultimo coro
-----|----|--------|
-----|----|--------|
-----|----|---2-2-2|
0h3-3|-3-2|-2------|
Related for Oracion tab