Song name
# A B C D E F G H I J K L M N O P Q R S T U V W X Y Z

Heroes Del Silencio - Culpable tab

Guitarra 1 con distorsión
Intro (x4)					1ª y 3ª Parte      2ª y 4ª Parte
  						________________  _________________
    E             A             C#5             A  B  E  B          B  A      B
|--------------------------------------------------------------|  -----------------|
|-----------------------------------------------2--4--5--4-4---|  --4--2-2-2--4-4--|
|-----------------2--2-2-2-2-2--6--6-6-6-6-6----2--4--4--4-4---|  --4--2-2-2--4-4--|
|---2--2-2-2-2-2--2--2-2-2-2-2--6--6-6-6-6-6----2--4--2--4-4---|  --4--2-2-2--4-4--|
|---2--2-2-2-2-2--0--0-0-0-0-0--4--4-4-4-4-4-------------------|  -----------------|
|---0--0-0-0-0-0-----------------------------------------------|  -----------------|
    >      >   >  >      >   >  >      >    >
 *. Apagar ligeramente las cuerdas con la mano en el puente


ryth.1________________________________________________________|
Guitarra 2 ( Entra en 3ª y 4ª parte )

    E             A            C#5             
|-------------------------------------------------------------|
|-------------------------------------------------------------|
|-----------------2-2----------6--(6)-------------------------| 
|---2-2-----------2-2----------6--(6)-------------------------|
|---2-2-----------0-0-0-4-2-0--4--(4)-------------------------|
|---0-0-0-3-2-0-----------------------------------------------|

ryth.2_______________________________________________________________________|
 ( Entra en 3ª y 4ª parte ) 
    
|--7-------7-------7----------7----------9-------9-------7---------7---------|
|----9-------9-------10---------10---------9-------9-------7---------7-------|
|------9-------9--------9----------9---------9-------9-------9---------9-----| 
|----------------------------------------------------------------------------|
|----------------------------------------------------------------------------|
|----------------------------------------------------------------------------|

E                    A
silencioso como una sombra
       C#5             A-B-E-B
no hay experiencias vetadas
         E               A
por las salas de los consejos
                C#5      B-A-B
que habitan las alimañas


PRE-CORO
            E
y aquel rasguño se me abria
   A                C#5    A-B-E-B
y ya tardaba en cicatrizar
           E
¿ te quedaras mi pesadilla
     A           C#5     B-A-B
rondandome al oscurecer ?


CORO
          D A           E
ir mas alla de lo permitido
          D    A                 B
por los fluidos que recorren el cuerpo
         D A          E
renunciaras a las costumbres y sometidos
          D A         C#5     B
la procesión ira por dentro


                E
¿ querrán las glándulas lascivas
 A             C#5   A-B-E-B
declararme culpable ?
           E
si me ofreci a tus rodillas
   A            C#5  B-A-B
y no quería quedarme...
           E        A
extrañas tretas mentales
       C#5          A-B-E-B
en desfiladeros y precipicios
      E             A
esparciendo alrededor
             C#5      B-A-B
el ocre más corrompido


CORO

SOLO [ E A E B ] (4)


         D                  E
y las palabras necias me dejaron sordo
       C#5
y a lo aprendido en la escuela
    A                         [ E A C#5 A-B-E-B ] (2)
me negare     (2) ... del todo


PRE-CORO

CORO (4)  [ E ]
Tap to rate this tab
 
# A B C D E F G H I J K L M N O P Q R S T U V W X Y Z