Song name
# A B C D E F G H I J K L M N O P Q R S T U V W X Y Z

Heroes Del Silencio - El Estanque tab

E-1-1-1-0-0-0--------0-0----------1-1-----1-1-1-----1-p0-|
A-3-3-3-1-1-1--------1-1----------3-3-1h3-3-3-3---3---p1-|
D-2-2-2-2-2-2-----p0-0-0-----0-p2-2-2-----2-2-2-2--------|
G-0-0-0-2-2-2-----p2-2-2--0h2--p0-0-0-----0-0-0----------|
B-------------0-2-p3-3-3-3-------------------------------|
E--------------------------------------------------------|

E-0-0-0-------0-0-----------1-------1-----1-0-8--0-7-0-5-|
A-1-1--3-1-p1-1-1------1-p3-3-3-1h3-3---3---1------------|
D-2-2------p0-0-0-0-0h2--p2-2-------2-2-----2------------|
G-2-2------p2-2-2-----------0-------0-------2------------|
B-------------3-3----------------------------------------|
E--------------------------------------------------------|

E-0-----0-0------------------------------3---8h7--0--3h2-0-----|
A--3-1--1-1------------------3-------3--3--------8---------0---|
D-----0-0-0--0h2-3-2-0-----2--2-2-2-2--2---0-------------------|
G-------2-2-----------3-2-0-0--0-0-0---------------------------|
B-------3-3----------------------------------------------------|
E-------0-0----------------------------------------------------|

E-0--1-0-------3-0--0--1-0-------3-0--0--1-0------------------|
A-1------1---1------1------1---1------1------0----------------|
D-0--------2--------0--------2--------0-----------------------|
G-------------------------------------------------------------|
B-------------------------------------------------------------|
E-------------------------------------------------------------|

E-3-3-3------3-2-2-2--2-0---5---5----------------------------------------|
A-5-5-5----5---3-3-3------3---3---3-3-------3-5--5-3h5-5/0---------------|
D-4-4-4--4-----4-4-4------------------2-2h4------------------------------|
G-0-0-0--------0-0-0-----------------------------------------------------|
B------------------------------------------------------------------------|
E------------------------------------------------------------------------|

E-----3-2-2-2--10---9---7--2-0--------------------------------------------3-|
A---5---3-3-3-----7---7--------3-----------------------5-------------5--5---|
D-4-----4-4-3--------------------2-2-4-5-4-2-0-----4----4---4--4---4--4-----|
G-------0-0-0----------------------------------4-2---2----2---2--2----------|
B---------------------------------------------------------------------------|
E---------------------------------------------------------------------------|

E---8h7--0--3h2-0----0--1-0-------3-0--0--1-0-------3-0--0-1-0-----------|
A------8----------0--1------1---1------1------1---1------1-----0---------|
D-0------------------0--------2--------0--------2--------0---------------|
G------------------------------------------------------------------------|
B------------------------------------------------------------------------|
E------------------------------------------------------------------------|

E-----3-2-2-0---5---5----------------------------------------------------|
A---5---------3---3---3-3-------3-5-5/6/5--5-3h5-5-----------------------|
D-4-----------------------2-2h4------------------------------------------|
G------------------------------------------------------------------------|
B------------------------------------------------------------------------|
E------------------------------------------------------------------------|

Las leyes salvaje Empaņan mi huida ...........................
Tap to rate this tab
# A B C D E F G H I J K L M N O P Q R S T U V W X Y Z