Song name
# A B C D E F G H I J K L M N O P Q R S T U V W X Y Z

Heroes Del Silencio - La Chispa Adecuada tab

Intro:
e|---------------------------------------------------------|
B|---------------------------------------------------------|
G|------------10---9---------9h10-9------------------5---5-|
D|----------0----0---10---10--------10-------8---10--5---5-|
A|----------------------0--------------0---8---8-------8---|
E|-8-8/10-10-----------------------------6-----------------|

e|---------------------------------------------------------|
B|----------------------------10---------------------------|
G|------------10---9-------------9------------------10-10--|
D|----------0----0---10--10--------10-------8---10--10-----|
A|----------------------0-------------0---8---8-----8------|
E|-8-8/10-10----------------------------6------------------|

e|---------------------------------------------------------|
B|---------------------------------------------------------|
G|------------10---9---------9h10-9------------------5---5-|
D|----------0----0---10---10--------10-------8---10--5---5-|
A|----------------------0--------------0---8---8-------8---|
E|-8-8/10-10-----------------------------6-----------------|

e|--------------------------------------------------------------------|
B|----------------------------10--------------------------------------|
G|------------10---9-------------9------------------10-10-9-----------|
D|----------0----0---10--10--------10-------8---10--10------10-7p0-0--|
A|----------------------0-------------0----8---8----8-----------------|
E|-8-8/10-10----------------------------6-----------------------------|

Verso 1
Las palabras...
e|------------------------------------------------|
B|------------------------------------------------|
G|---10---9---------9h10-9------------------5---5-|
D|-0----0---10---10--------10-------8---10--5---5-|
A|-------------0--------------0---8---8-------8---|
E|------------------------------6-----------------|

Cuando aun te espero....
e|---------------------------------------------------------|
B|----------------------------10---------------------------|
G|------------10---9-------------9------------------10-10--|
D|----------0----0---10--10--------10-------8---10--10-----|
A|----------------------0-------------0---8---8-----8------|
E|-8-8/10-10----------------------------6------------------|

En un ataúd...
e|---------------------------------------------------------|
B|---------------------------------------------------------|
G|------------10---9---------9h10-9------------------5---5-|
D|----------0----0---10---10--------10-------8---10--5---5-|
A|----------------------0--------------0---8---8-------8---|
E|-8-8/10-10-----------------------------6-----------------|

Con tu pelo...
e|---------------------------------------------------------|
B|----------------------------10---------------------------|
G|------------10---9-------------9------------------10~----|
D|----------0----0---10--10--------10-------8---10--10~----|
A|----------------------0-------------0---8---8-----8~-----|
E|-8-8/10-10----------------------------6------------------|
Estribillo (sin letra)
e|-----------------------------------------------------|
B|-----------7--7--5-7-10--10--8h10p8-7h8p7-5h7p5------|
G|-7--7-6--7-------------------------------------7h9p7-|
D|-----------------------------------------------------|
A|-----------------------------------------------------|
E|-----------------------------------------------------|

e|--------------------------------------|
B|----------7-7--5-7-10--10--8h10-7h8-7-|
G|-7-7-6--7-----------------------------|
D|--------------------------------------|
A|--------------------------------------|
E|--------------------------------------|

Verso 2
Mis manos que aun son de hueso...
e|-------------------------------------------------------|
B|-------------------------------------------------------|
G|----------10---9---------9h10-9------------------5---5-|
D|--------0----0---10---10--------10-------8---10--5---5-|
A|--------------------0--------------0---8---8-------8---|
E|-8/10-10-----------------------------6-----------------|

La catedral es...
e|---------------------------------------------------------|
B|----------------------------10---------------------------|
G|------------10---9-------------9------------------10-10--|
D|----------0----0---10--10--------10-------8---10--10-----|
A|----------------------0-------------0---8---8-----8------|
E|-8-8/10-10----------------------------6------------------|

Eras verano...
e|---------------------------------------------------------|
B|---------------------------------------------------------|
G|------------10---9---------9h10-9------------------5---5-|
D|----------0----0---10---10--------10-------8---10--5---5-|
A|----------------------0--------------0---8---8-------8---|
E|-8-8/10-10-----------------------------6-----------------|

Que sonríe a....
e|---------------------------------------------------------|
B|----------------------------10---------------------------|
G|------------10---9-------------9------------------10~----|
D|----------0----0---10--10--------10-------8---10--10~----|
A|----------------------0-------------0---8---8-----8~-----|
E|-8-8/10-10----------------------------6------------------|

Estribillo
 (No se distinguir entre besos y raíces....)
e|-----------------------------------------------------|
B|-----------7--7--5-7-10--10--8h10p8-7h8p7-5h7p5------|
G|-7--7-6--7-------------------------------------7h9p7-|
D|-----------------------------------------------------|
A|-----------------------------------------------------|
E|-----------------------------------------------------|

e|--------------------------------------|
B|----------7-7--5-7-10--10--8h10-7h8-5-|
G|-7-7-6--7-----------------------------|
D|--------------------------------------| x2
A|--------------------------------------|
E|--------------------------------------|

Puente
e|--5-5-5-5-5--5-5-5-5-5---1-1-1-1-1--3-3-3-3-3----|
B|--6-6-6-6-6--5-5-5-5-5---1-1-1-1-1--3-3-3-3-3----|
G|--7-7-7-7-7--7-7-7-7-7---3-3-3-3-3--5-5-5-5-5----|
D|--7-7-7-7-7--7-7-7-7-7---3-3-3-3-3--5-5-5-5-5----|
A|--5-5-5-5-5--5-5-5-5-5---1-1-1-1-1--3-3-3-3-3----|
E|--5-5-5-5-5--5-5-5-5-5---1-1-1-1-1--3-3-3-3-3----|
                                                         /   X 2
e|--5-5-5-5-5--3-3-3-3-3---1-1-1-1-1--3-3-3-3-3----|    /
B|--6-6-6-6-6--3-3-3-3-3---1-1-1-1-1--3-3-3-3-3----|   /
G|--7-7-7-7-7--5-5-5-5-5---3-3-3-3-3--5-5-5-5-5----|  /
D|--7-7-7-7-7--5-5-5-5-5---3-3-3-3-3--5-5-5-5-5----| /
A|--5-5-5-5-5--3-3-3-3-3---1-1-1-1-1--3-3-3-3-3----|/
E|--5-5-5-5-5--3-3-3-3-3---1-1-1-1-1--3-3-3-3-3----|

(En la segunda vuelta entra el solo de bajo)
e|---------------------------------------------------------------------|
B|---------------------------------------------------------------------|
G|---------------------------------------------------------------------|
D|---7-5-----------------------------------7-5-------------------------|
A|-------7-8-7-5-----------6-8-------8p-6------7-8-7-5-----------------|
E|----------------8--5-6-6-----8-8-8---------------------8---5/6---6/8-|

Verso 3
El fuego que era...
e|---------------------------------------------------------|
B|---------------------------------------------------------|
G|------------10---9---------9h10-9------------------5---5-|
D|----------0----0---10---10--------10-------8---10--5---5-|
A|----------------------0--------------0---8---8-------8---|
E|-8-8/10-10-----------------------------6-----------------|

Blanca esperma...
e|---------------------------------------------------------|
B|----------------------------10---------------------------|
G|------------10---9-------------9------------------10-10--|
D|----------0----0---10--10--------10-------8---10--10-----|
A|----------------------0-------------0---8---8-----8------|
E|-8-8/10-10----------------------------6------------------|

Ya somos más viejos....
e|---------------------------------------------------------|
B|---------------------------------------------------------|
G|------------10---9---------9h10-9------------------5---5-|
D|----------0----0---10---10--------10-------8---10--5---5-|
A|----------------------0--------------0---8---8-------8---|
E|-8-8/10-10-----------------------------6-----------------|

Si miramos la laguna...
e|---------------------------------------------------------|
B|----------------------------10---------------------------|
G|------------10---9-------------9------------------10~----|
D|----------0----0---10--10--------10-------8---10--10~----|
A|----------------------0-------------0---8---8-----8~-----|
E|-8-8/10-10----------------------------6------------------|

Estribillo
 (No se distinguir entre besos y raíces....)
e|-----------------------------------------------------|
B|-----------7--7--5-7-10--10--8h10p8-7h8p7-5h7p5------|
G|-7--7-6--7-------------------------------------7h9p7-|
D|-----------------------------------------------------|
A|-----------------------------------------------------|
E|-----------------------------------------------------|
e|--------------------------------------|
B|----------7-7--5-7-10--10--8h10-7h8-5-|
G|-7-7-6--7-----------------------------|
D|--------------------------------------| x2
A|--------------------------------------|
E|--------------------------------------|

Fin
Con distorsión
e|--5-5-5-5-5--5-5-5-5-5---1-1-1-1-1--3-3-3-3-3----|
B|--6-6-6-6-6--5-5-5-5-5---1-1-1-1-1--3-3-3-3-3----|
G|--7-7-7-7-7--7-7-7-7-7---3-3-3-3-3--5-5-5-5-5----|
D|--7-7-7-7-7--7-7-7-7-7---3-3-3-3-3--5-5-5-5-5----|
A|--5-5-5-5-5--5-5-5-5-5---1-1-1-1-1--3-3-3-3-3----|
E|--5-5-5-5-5--5-5-5-5-5---1-1-1-1-1--3-3-3-3-3----|

e|--5-5-5-5-5--3-3-3-3-3---1-1-1-1-1--3-3-3-3-3----|
B|--6-6-6-6-6--3-3-3-3-3---1-1-1-1-1--3-3-3-3-3----|
G|--7-7-7-7-7--5-5-5-5-5---3-3-3-3-3--5-5-5-5-5----|
D|--7-7-7-7-7--5-5-5-5-5---3-3-3-3-3--5-5-5-5-5----|
A|--5-5-5-5-5--3-3-3-3-3---1-1-1-1-1--3-3-3-3-3----|
E|--5-5-5-5-5--3-3-3-3-3---1-1-1-1-1--3-3-3-3-3----|

e|--5-5-5-5-5--5-5-5-5-5---1-1-1-1-1--3-3-3-3-3----|
B|--6-6-6-6-6--5-5-5-5-5---1-1-1-1-1--3-3-3-3-3----|
G|--7-7-7-7-7--7-7-7-7-7---3-3-3-3-3--5-5-5-5-5----|
D|--7-7-7-7-7--7-7-7-7-7---3-3-3-3-3--5-5-5-5-5----|
A|--5-5-5-5-5--5-5-5-5-5---1-1-1-1-1--3-3-3-3-3----|
E|--5-5-5-5-5--5-5-5-5-5---1-1-1-1-1--3-3-3-3-3----|

e|--5-5-5-5-5--3-3-3-3-3---1-1-1-1-1--3-3-3-3-3----|
B|--6-6-6-6-6--3-3-3-3-3---1-1-1-1-1--3-3-3-3-3----|
G|--7-7-7-7-7--5-5-5-5-5---3-3-3-3-3--5-5-5-5-5----|
D|--7-7-7-7-7--5-5-5-5-5---3-3-3-3-3--5-5-5-5-5----|
A|--5-5-5-5-5--3-3-3-3-3---1-1-1-1-1--3-3-3-3-3----|
E|--5-5-5-5-5--3-3-3-3-3---1-1-1-1-1--3-3-3-3-3----|

...la chispa adecuada
e|----------------------|
B|----------------------|
G|---------10---9-------|
D|-------0----0---10~---|
A|----------------------|
E|-8/10-----------------|
Tap to rate this tab
# A B C D E F G H I J K L M N O P Q R S T U V W X Y Z