Song name
# A B C D E F G H I J K L M N O P Q R S T U V W X Y Z

Heroes Del Silencio - Zeta tab

                                     Zeta                                       


                                                             Heroes Del Silencio
Pista 1



     ^              ^                 ^              >               
        
E||--------------------------------|--------------------------------|
B||--------------------------------|--------------------------------|
G||------------0--------------0----|------------0--------------0----|
D||-------0s-2---2-------0s-2---2--|-------0s-2---2-------0s-2---2--|
A||--2--2-----------2--2-----------|--2--2-----------2--2-----------|
E||--0--------------0--------------|--0--------------0--------------|


  ^            ^                 ^           ^               
     
------------------------------|-----------------------------|
--0------------1--------------|-----------------------------|
-------------------------0----|--4--2--------0---------0----|
------------2-------0h-2---2--|--0-----5--4--0----0s-2---2--|
-------0--L-------3-----------|-----------------2-----------|
-----3------------------------|-----------------------------|


  ^              ^                 ^             ^  ^               
                                      |--3--|                       
     
--------------------------------|----------------------------------|
--0--------------1--------------|----------------------------------|
------------0--------------0----|--4--2h-4p-2-0--2--0---------0----|
-------0g2----2-------0h-2---2--|--0-------------0--0----0s-2---2--|
--------------------3-----------|----------------------2-----------|
-----3--------------------------|----------------------------------|


  ^              ^                 ^              ^               
     
--------------------------------|--------------------------------|
--0--------------2--------------|--1-----------------------------|
------------0--------------0----|------------0----2---------0----|
-------0h-2---2-------0h-2---2--|-------0h-2---2--0----0h-2---2--|
--------------------3-----------|-----2--------------2-----------|
-----3--------------------------|--------------------------------|


  ^              ^                 ^         ^   ^       
     
--------------------------------|-----------------------|
--------------------------------|--3-------------3------|
--2---------0----2---------0----|--2---------2---2------|
--0----0h-2---2--0----0h-2---2--|--0---------0----------|
-----2--------------2-----------|---------0----------0--|
--------------------------------|-----------------------|


  ^        ^                 ^              ^               
     
--------------------------|--------------------------------|
--------------------------|--------------------------------|
--2--------2---------0----|------------0--------------0----|
--0--------0----0h-2---2--|-------0s-2---2-------0s-2---2--|
--------------2-----------|--2--2-----------2--2-----------|
--------------------------|--0--------------0--------------|


  ^              ^                 ^            ^               
     
--------------------------------|------------------------------|
--------------------------------|--0------------1--------------|
------------0--------------0----|-------------------------0----|
-------0s-2---2-------0s-2---2--|------------2-------0h-2---2--|
--2--2-----------2--2-----------|-------0--L-------3-----------|
--0--------------0--------------|-----3------------------------|


  ^           ^                 ^            ^               
     
-----------------------------|------------------------------|
-----------------------------|--0------------1--------------|
--4--2--------0---------0----|----------0--------------0----|
--0-----5--4--0----0s-2---2--|-------0----2-------0h-2---2--|
-----------------2-----------|-----0------------3-----------|
-----------------------------|------------------------------|


  ^             ^  ^                                                
     |--3--|                                                        
     
----------------------------------|--------------------------------|
----------------------------------|--0--------------2--------------|
--4--2h-4p-2-0--2--0---------0----|------------0--------------0----|
--0-------------0--0----0s-2---2--|-------0h-2---2-------0h-2---2--|
----------------------2-----------|--------------------3-----------|
----------------------------------|-----3--------------------------|


                                                              ^     
                                                             NH
-------------------------------|-----------------------------------|
-----3s-5-3--1--0--------------|-----------------------------------|
--2----------------2s-4-2-0----|-----------------------------------|
--0-------------------------2--|--0------------------------<>12----|
-------------------------------|-----0s-2-0----------------<>12----|
-------------------------------|------------3p-0--3--(3)/----------|


     NH                 
     W                  
----------------------||
----------------------||
--<>12----------------||
--<>12----------------||
----------------------||
----------------------||




Duration Legend
---------------
W - whole
H - half
Q - quarter
E - 8th
S - 16th
T - 32nd
X - 64th
. - note dotted
|-n-|  - n-tuplets


Tablature Legend
----------------
L - tied note
x - dead note
g - grace note
(n) - ghost note
> - accentuded note
NH - natural harmonic
AH - artificial harmonic
TH - tapped harmonic
SH - semi harmonic
PH - pitch harmonic
h - hammer on
p - pull off
b - bend
br - bendRelease
pb - preBend
pbr - preBendRelease
brb - bendReleaseBend
\n/ - tremolo bar dip
\n - tremolo bar dive
-/n - tremolo bar Release up
/n\ - tremolo bar inverted dip
/n - tremolo bar return
-\n - tremolo bar Release down
S - shift slide
s - legato slide
/ -  slide into from below or out of upwards
\ -  slide into from above or out of downwards
~ - vibrato
W - wide vibrato
tr - trill
TP - tremolo picking
T - tapping
S - slap
P - pop
< - fade in
^ - brush up
v - brush down
Tap to rate this tab
# A B C D E F G H I J K L M N O P Q R S T U V W X Y Z