Song name
# A B C D E F G H I J K L M N O P Q R S T U V W X Y Z

Heroes Del Silencio - Con Nombre De Guerra tab

-=Intro=-
       G                              G
   drums & bass 
e|--------------|--7-7-8p7-7-7-7-7-7-7-7-7-7-7-7-7--8-8-8-8p7--7-7-7-7-7-7--|]
B|--------------|--8-8-8-8-8-8-8-8-8-8-8-8-8-8-8-8--8-8-8-8-8--8-8-8-8-8-8--|]
G|--------------|--7-7-7-7-7-7-7-7-7-7-7-7-7-7-7-7--7-7-7-7-7--7-7-7-7-7-7--|]
D|--------------|-----------------------------------------------------------|]
A|--------------|-----------------------------------------------------------|]
E|--------------|-----------------------------------------------------------|]
                 ^----------------------------x2---------------------------^
G
entra despacio
          C
que nadie oiga tus pasos
 Em
mientras tanto
        D                            G
si los nervios no traicionan, todo ira bien
           Bm             Em
y dejemos los besos para los enamorados
      Bm                         Em
y pensemos en lo nuestro que por eso te he pagado
          Bm
aunque esta noche
      D                   Em  Bm  Em  C  D  G
seas solo mercancía para mi.

G
dejo en tus manos
        C
lo que hemos acordado
     Em
la lluvia de hace un rato
       D                   G
ahora solo necesito descansar

            Bm                  Em
y dejemos que los sueños se apoderen del deseo
      Bm                           Em
recordemos que lo nuestro se me olvidara al momento
          Bm
aunque esta noche
     D                        Em  Bm  Em  C  D
sea solo unos billetes para ti

-=Solo=- 
G  Em  Em-Bm  D-C  Em-Bm  D-C  Em  D  C  C  Em  D  C-D  C-D    Em  Bm  Em C D G 
-=G1=-
e|-----3---|----|-----2-3-|----|-----3---|----|-----0--5-|----|-----3-----|]
B|---5---5-|----|---3-----|----|---5---5-|----|---3------|----|---5----5--|]
G|-4-------|----|-2-------|----|-4-------|----|-2--------|----|-4---------|]
D|---------|----|---------|----|---------|----|----------|----|-----------|]
A|---------|----|---------|----|---------|----|----------|----|-----------|]
E|---------|----|---------|----|---------|----|----------|----|-----------|]

-=G2=-
e|----|-----2-0-|----|-------3-|----|-----2-0-|----|----------|----|]
B|----|---3-----|----|-----3---|----|---3-----|----|-----5--3-|----|]
G|----|-4-------|----|---5-----|----|-4-------|----|---5------|----|]
D|----|---------|----|-5-------|----|---------|----|-5--------|----|]
A|----|---------|----|---------|----|---------|----|----------|----|]
E|----|---------|----|---------|----|---------|----|----------|----|]

-=G1=-
e|---------|------|-----3---|---------|-------3-|--------3-|--------3--|--------3----|]
B|-----5-3-|------|---5---5-|---------|-----3---|------3---|------3----|------3------|]
G|---5-----|------|-4-------|---------|---5-----|----5-----|----5------|----5--------|]
D|-5-------|------|---------|---------|-5-------|--5-------|--5--------|--5----------|]
A|---------|------|---------|---------|---------|----------|-----------|-------------|]
E|---------|------|---------|---------|---------|----------|-----------|-------------|]

-=G2=-                                               C-D    D     C-D    D  
e|----|-----2--0---|----|-----2-3--|----|-----0-5-|-------------------------|]
B|----|---3--------|----|---3------|----|---3-----|-------------------------|]
G|----|-4----------|----|-2--------|----|-2-------|-------------------------|]
D|----|------------|----|----------|----|---------|-------------------------|]
A|----|------------|----|----------|----|---------|-------------------------|]
E|----|------------|----|----------|----|---------|-------------------------|]

  D                  Em                  Bm              Em                            C
-=G1=-
e|-8p7----------|-----------------|-3---------|---------------------------|------------|]
B|-----10-8---8-|---------------3-|---3-0h3h5-|-5--7/8--10p8p7------------|----------8-|]
G|----------7---|-9--9/-----2h4---|-----------|----------------9------7---|-7/9---9----|]
D|--------------|-------2h4-------|-----------|------------------9-/9---9-|-----10-----|]
A|--------------|-----------------|-----------|---------------------------|------------|]
E|--------------|-----------------|-----------|---------------------------|------------|]

                  D
e|---------------|------------------10-------------|]
B|---------------|-------------7h8------8--7---7h8-|]
G|--9--9p7h9--5--|-5/7----7------------------------|]
D|---------------|------7---7----------------------|]
A|---------------|---------------------------------|]
E|---------------|---------------------------------|]

G
pienso en los años
             C
que llevas guerreando
        Em
con un nombre por bandera
       D                         G
ahora solo quiero oírlo una vez más.

            Bm               Em
y dejemos que lo cierto sea lo que imaginamos
      Bm                       Em
recordemos que lo nuestro todavía no ha acabado
        Bm                         D
aunque por esta noche... por esta noche
                  G
nos podemos despedir.


Dudas, comentarios o correcciones ragarideath@hotmail.com
Tijuana, BC, México    Ramón Guillermo Galáz Rios 11/03/05'
Tap to rate this tab
# A B C D E F G H I J K L M N O P Q R S T U V W X Y Z