Song name
# A B C D E F G H I J K L M N O P Q R S T U V W X Y Z

Heroes Del Silencio - Opio tab

  Riff 1
                 Gm                                          Dm
e|----------------------------------------------|------------------------------------5------|
B|----------------------------------------------|------------------6--5h6-------------------|
G|---------0--3--5h7----7-5h7p5----5--5h7--8\7--|------0--3--5h7-----------7--5--7------7---|
D|------0-----------------------8---------------|---0---------------------------------------|
A|----------------------------------------------|-------------------------------------------|
E|----------------------------------------------|-------------------------------------------|


                  Bb                                              Dm
e|----------------------------------------------------------------------------------|
B|-------------------------------6----4--3h4--3------3h4--3-----------------8--7-7--|
G|---------0--3---5h7--5----7-5------------------5-----------5----7-----------------|
D|------0---------------------------------------------------------7-----------------|
A|----------------------------------------------------------------5-----------------|
E|----------------------------------------------------------------------------------|

Repite, pero sustituye la ultima 'barra' por esta otra:
Repeated, but replacing the last 'bar' for this one:

                 F                                    Dm
e|---------------------------------------------------------------------------|
B|--------------------------------------------------------------8---7-7---8--|
G|---------0--3--5h7--5----5--3--5----8p7--------------------7----------7----|
D|------0---------------------------------10-8-7-5-1-------------------------|
A|----------------------------------------------------5----------------------|
E|---------------------------------------------------------------------------|

Verso 1
      Gm                                     Dm
e|-------------------------------------|---------------------------------|
B|-------------------------------------|---------------------------------|
G|-------------------------------------|-----7--7-7-7---5/7-7--7/8\7--7--|
D|----5-5-5---5-5-8--4/5--8\5--5--5-5--|--4--7--7-7-7---5/7-7--7/8\7--7--|
A|----5-5-5---5-5-8--4/5--8\5--5--5-5--|--4--5--5-5-5---3/5-5--5/6\5--5--|
E|----3-3-3---3-3-6--2/3--6\3--3--3-3--|--2------------------------------|
  
     F                                             Dm
e|---------------------------------------------|------------------------|
B|---------------------------------------------|-------3---3--3-3--3-3--|
G|--------4--0--4h6-4-----------4--0--4h6-4----|---2-------2--2-2--2-2--|
D|---8--------------------8--------------------|---0-------0--0-0--0-0--|
A|---8--------------------8--------------------|------------------------|
E|---6--------------------6--------------------|------------------------|
                                                 \--------------------/
 
Repite el verso y sustituye la parte seņalada por esta: 
Repeat the verse and replaced the part referred to by this             
    Dm
e|------------------------|
B|--3---3-3-3----6--4--3--|
G|--2---2-2-2-------------|
D|--0---0-0-0-------------|
A|------------------------|
E|------------------------|

Estribillo              rasgueo                       rasgu.                         rasgu.
                    Bb /------\                  Gm /-------\                   D# /------\
e|---------------------x-x-x-x-|---------------------3-3-3-3-|---------------------6-6-6-6-|
B|---------------------3-3-3-3-|---------------------3-3-3-3-|---------------------8-8-8-8-|
G|--------0---3---5h7--3-3-3-3-|--------0---3---5h7--3-3-3-3-|--------0---3---5h7--8-8-8-8-|
D|----0----------------3-3-3-3-|----0----------------5-5-5-5-|----0----------------8-8-8-8-|
A|---------------------1-1-1-1-|---------------------5-5-5-5-|---------------------6-6-6-6-|
E|---------------------x-x-x-x-|---------------------3-3-3-3-|---------------------x-x-x-x-|
                    
                    Cm  rasgu.                    Bb   rasgu.                   Gm  rasgu.
e|---------------------3-3-3-3-||--------------------x-x-x-x-|---------------------3-3-3-3-|
B|---------------------4-4-4-4-||--------------------3-3-3-3-|---------------------3-3-3-3-|
G|--------0---3---5h7--5-5-5-5-||-------0---3---5h7--3-3-3-3-|--------0---3---5h7--3-3-3-3-|
D|----0----------------5-5-5-5-||---0----------------3-3-3-3-|----0----------------5-5-5-5-|
A|---------------------3-3-3-3-||--------------------1-1-1-1-|---------------------5-5-5-5-|
E|---------------------x-x-x-x-||--------------------x-x-x-x-|---------------------3-3-3-3-|

                    D# rasgu.     Dm                  F
e|---------------------6-6-6-6-|-------------------|--1-1-1-1-1-1-1-1--|
B|---------------------8-8-8-8-|--3-3-3-3-3-3-3-3--|--1-1-1-1-1-1-1-1--|
G|---------------------8-8-8-8-|--2-2-2-2-2-2-2-2--|--2-2-2-2-2-2-2-2--|
D|--------0---3---5h7--8-8-8-8-|--0-0-0-0-0-0-0-0--|-------------------|
A|----0----------------6-6-6-6-|-------------------|-------------------|
E|---------------------x-x-x-x-|-------------------|-------------------|

  Riff 2
               Gm                                              Dm
e|-------------------------------------------|-----------------------------------------5----|
B|-------------------------------------------|---------------------6--5h6p5-----------------|
G|-------0-3-5h7----7-5h7p5----5--5h7---8/7--|--------0---3--5h7-------------7--5--7-----7--|
D|----0---------------------8----------------|----0-----------------------------------------|
A|-------------------------------------------|----------------------------------------------|
E|-------------------------------------------|----------------------------------------------|
                    F                                                  Dm                     
e|-------------------------------------------------------------------------------6/8---8---8-|
B|-----------------------------------5h6---4--3h4--3------4h6--4-----------------------------|
G|--------0---3---3h5--5--5-5--3--3-------------------5-----------7--5/7---------------------|
D|----0--------------------------------------------------------------------------------------|
A|-------------------------------------------------------------------------------------------|
E|-------------------------------------------------------------------------------------------|

                 Gm                                                Dm
e|---7--5--------------------------------------------7--5--|-------------------------------5----|
B|---------------------------------------------------------|-----------6--5h6p5-----------------|
G|----------3--5h7---7--5h7p5---5--5/7--/8\5--5/7-\5-------|--3--5h7-------------7--5--7-----7--|
D|----------------------------8----------------------------|------------------------------------|
A|---------------------------------------------------------|------------------------------------|
E|---------------------------------------------------------|------------------------------------|
    F    D#           F    D#       Dm
e|-----------------------------------------|
B|-----------------------------------------|
G|--2-2--8-8-8-8-8-8--2-2--8-8-8-8--7-7-7--|
D|--3-3--8-8-8-8-8-8--3-3--8-8-8-8--7-7-7--|
A|--3-3--6-6-6-6-6-6--3-3--6-6-6-6--5-5-5--|
E|-----------------------------------------|


 VERSO 1


 ESTRIBILLO


  Riff 3
      Gm                Bb                 D#               F             
e|-----------------|------------------|----------------|----------------|  
B|-------3-----3---|-------3-----3----|-------8-----8--|-------1-----1--|   
G|----3------3-----|----3------3------|----8------8----|----2------2----|  Repite
D|----5------------|----3-------------|----8-----------|----3-----------|    4x
A|----5------------|----1-------------|----6-----------|----3-----------|
E|-----------------|------------------|----------------|----------------|

  Verso 2
    Gm                    Bb               D#                 F
e|---------------------|----------------|------------------|------------------|
B|-----------3---------|-----3----------|------------------|------------------|
G|--3---3--------3-----|--3-----3--3-3--|--8---8--8-8-8-8--|--2---2--2-2-2-2--|  Repite
D|--5------5--------5--|--3-----3--3-3--|--8---8--8-8-8-8--|--2---2--2-2-2-2--|    4x
A|--5------------------|--1-----1--1-1--|--6---6--6-6-6-6--|--3---3--3-3-3-3--|
E|---------------------|----------------|------------------|------------------|


ESTRIBILLO 2X


SUGERENCIAS O CORRECCIONES A: sasuke_jbp@hotmail.com
SUGGESTIONS AND CORRECTIONS TO: sasuke_jbp@hotmail.com
Tap to rate this tab
 
# A B C D E F G H I J K L M N O P Q R S T U V W X Y Z