Song name
# A B C D E F G H I J K L M N O P Q R S T U V W X Y Z

Heroes Del Silencio - La Chispa Adecuada tab

 INTRODUCCION 
Dm
E|--------------------------------------------------------------|   
B|--------------------------------------------------------------|   
G|2--3--5--7--5--7--7-8-7-5-7--7-9-10--10--9-7--5--7------------|   
D|--------------------------------------------------------------|   
A|--------------------------------------------------------------|   
E|--------------------------------------------------------------|   

Dm
E|-5-5--3-5-6-5-3-5-3-5-3-1-3-1-0-1-0---------------------------|   
B|-------------------------------------------------1--3---------|   
G|--------------------------------------------------------------|   
D|--------------------------------------------------------------|   
A|--------------------------------------------------------------|   
E|--------------------------------------------------------------|   

1)Dm  Am
  Las palabras fueron avispas
 A#C
y las calles como dunas 
DmAm  A#  C
cuando aún te espero llegar.. 


1) un ataúd guardo tu tacto y 
una corona 
con tu pelo enmarañado 
queriendo encontrar un 
arco-iris infinito

e|---------------------------------------------------------|
B|---------------------------------------------------------|
G|------------10---9---------9h10-9------------------5---5-|
D|----------0----0---10---10--------10-------8---10--5---5-|
A|----------------------0--------------0---8---8-------8---|
E|-8-8/10-10-----------------------------6-----------------|

e|---------------------------------------------------------|
B|----------------------------10---------------------------|
G|------------10---9-------------9------------------10-10--|
D|----------0----0---10--10--------10-------8---10--10-----|
A|----------------------0-------------0---8---8-----8------|
E|-8-8/10-10----------------------------6------------------|

e|---------------------------------------------------------|
B|---------------------------------------------------------|
G|------------10---9---------9h10-9------------------5---5-|
D|----------0----0---10---10--------10-------8---10--5---5-|
A|----------------------0--------------0---8---8-------8---|
E|-8-8/10-10-----------------------------6-----------------|

e|--------------------------------------------------------------------|
B|----------------------------10--------------------------------------|
G|------------10---9-------------9------------------10-10-9-----------|
D|----------0----0---10--10--------10-------8---10--10------10-7p0-0--|
A|----------------------0-------------0----8---8----8-----------------|
E|-8-8/10-10----------------------------6-----------------------------|

1)Dm  Am  A#  C

E|------------1-0---------1--0--------------------5-5--3--------|   
B|-1-1-1--3-----1-------------1-------1-----3-------------------|   
G|-----------------2-2-----------3-3-----3----------------------|   
D|--------------------------------------------------------------|   
A|--------------------------------------------------------------|   
E|--------------------------------------------------------------|   

E|------------1-0---------5--0--------------------5-5--3--------|   
B|-1-1-1--3-----1-------------1-------1-----3-------------------|   
G|-----------------2-2-----------3-3-----3----------------------|   
D|--------------------------------------------------------------|   
A|--------------------------------------------------------------|   
E|--------------------------------------------------------------|   

Verso 1
e|------------------------------------------------|
B|------------------------------------------------|
G|---10---9---------9h10-9------------------5---5-|
D|-0----0---10---10--------10-------8---10--5---5-|
A|-------------0--------------0---8---8-------8---|
E|------------------------------6-----------------|

e|---------------------------------------------------------|
B|----------------------------10---------------------------|
G|------------10---9-------------9------------------10-10--|
D|----------0----0---10--10--------10-------8---10--10-----|
A|----------------------0-------------0---8---8-----8------|
E|-8-8/10-10----------------------------6------------------|

En un ataúd...
e|---------------------------------------------------------|
B|---------------------------------------------------------|
G|------------10---9---------9h10-9------------------5---5-|
D|----------0----0---10---10--------10-------8---10--5---5-|
A|----------------------0--------------0---8---8-------8---|
E|-8-8/10-10-----------------------------6-----------------|

e|---------------------------------------------------------|
B|----------------------------10---------------------------|
G|------------10---9-------------9------------------10~----|
D|----------0----0---10--10--------10-------8---10--10~----|
A|----------------------0-------------0---8---8-----8~-----|
E|-8-8/10-10----------------------------6------------------|

Estribillo (sin letra)
e|-----------------------------------------------------|
B|-----------7--7--5-7-10--10--8h10p8-7h8p7-5h7p5------|
G|-7--7-6--7-------------------------------------7h9p7-|
D|-----------------------------------------------------|
A|-----------------------------------------------------|
E|-----------------------------------------------------|

e|--------------------------------------|
B|----------7-7--5-7-10--10--8h10-7h8-7-|
G|-7-7-6--7-----------------------------|
D|--------------------------------------|
A|--------------------------------------|
E|--------------------------------------|

Verso 2
2)D-Fm#- G- A

1)Mis manos que aún son de hueso 
y tu vientre sabe a pan 
la catedral es tu cuerpo 

1)eres verano y mil tormentas yo 
el león 
que sonríe a las paredes 
que he vuelto a pintar del 
mismo color 

e|-------------------------------------------------------|
B|-------------------------------------------------------|
G|----------10---9---------9h10-9------------------5---5-|
D|--------0----0---10---10--------10-------8---10--5---5-|
A|--------------------0--------------0---8---8-------8---|
E|-8/10-10-----------------------------6-----------------|

e|---------------------------------------------------------|
B|----------------------------10---------------------------|
G|------------10---9-------------9------------------10-10--|
D|----------0----0---10--10--------10-------8---10--10-----|
A|----------------------0-------------0---8---8-----8------|
E|-8-8/10-10----------------------------6------------------|

e|---------------------------------------------------------|
B|---------------------------------------------------------|
G|------------10---9---------9h10-9------------------5---5-|
D|----------0----0---10---10--------10-------8---10--5---5-|
A|----------------------0--------------0---8---8-------8---|
E|-8-8/10-10-----------------------------6-----------------|

e|---------------------------------------------------------|
B|----------------------------10---------------------------|
G|------------10---9-------------9------------------10~----|
D|----------0----0---10--10--------10-------8---10--10~----|
A|----------------------0-------------0---8---8-----8~-----|
E|-8-8/10-10----------------------------6------------------|

Estribillo
 2) D    F#m   G
   No sé distinguir entre besos y 
   A
   raices 
   D      F#m    G
   No sé distinguir lo complicado 
   A
   de lo simple 


DF#m
y ahora estás en mi lista de 
G      A
promesas a olvidar 
D   F#m
todo arde si le aplicas la chispa 
G    A
adecuada 
e|-----------------------------------------------------|
B|-----------7--7--5-7-10--10--8h10p8-7h8p7-5h7p5------|
G|-7--7-6--7-------------------------------------7h9p7-|
D|-----------------------------------------------------|
A|-----------------------------------------------------|
E|-----------------------------------------------------|

e|--------------------------------------|
B|----------7-7--5-7-10--10--8h10-7h8-5-|
G|-7-7-6--7-----------------------------|
D|--------------------------------------| x2
A|--------------------------------------|
E|--------------------------------------|


Puente
e|--5-5-5-5-5--5-5-5-5-5---1-1-1-1-1--3-3-3-3-3----|
B|--6-6-6-6-6--5-5-5-5-5---1-1-1-1-1--3-3-3-3-3----|
G|--7-7-7-7-7--7-7-7-7-7---3-3-3-3-3--5-5-5-5-5----|
D|--7-7-7-7-7--7-7-7-7-7---3-3-3-3-3--5-5-5-5-5----|
A|--5-5-5-5-5--5-5-5-5-5---1-1-1-1-1--3-3-3-3-3----|
E|--5-5-5-5-5--5-5-5-5-5---1-1-1-1-1--3-3-3-3-3----|
                                                         
e|--5-5-5-5-5--3-3-3-3-3---1-1-1-1-1--3-3-3-3-3----|    
B|--6-6-6-6-6--3-3-3-3-3---1-1-1-1-1--3-3-3-3-3----|   
G|--7-7-7-7-7--5-5-5-5-5---3-3-3-3-3--5-5-5-5-5----|  
D|--7-7-7-7-7--5-5-5-5-5---3-3-3-3-3--5-5-5-5-5----| 
A|--5-5-5-5-5--3-3-3-3-3---1-1-1-1-1--3-3-3-3-3----|
E|--5-5-5-5-5--3-3-3-3-3---1-1-1-1-1--3-3-3-3-3----|  x2

(En la segunda vuelta entra el solo de bajo)
e|---------------------------------------------------------------------|
B|---------------------------------------------------------------------|
G|---------------------------------------------------------------------|
D|---7-5-----------------------------------7-5-------------------------|
A|-------7-8-7-5-----------6-8-------8p-6------7-8-7-5-----------------|
E|----------------8--5-6-6-----8-8-8---------------------8---5/6---6/8-|

Verso 3

1)El fuego que es a veces propio 
la ceniza siempre ajena 
blanca esperma resbalando por 
la espina dorsal 

1)Ya somos más viejos y sinceros 
y qué más da 
si miramos la "laguna" 
como llaman a la eternidad 
de la ausencia 

e|---------------------------------------------------------|
B|---------------------------------------------------------|
G|------------10---9---------9h10-9------------------5---5-|
D|----------0----0---10---10--------10-------8---10--5---5-|
A|----------------------0--------------0---8---8-------8---|
E|-8-8/10-10-----------------------------6-----------------|

e|---------------------------------------------------------|
B|----------------------------10---------------------------|
G|------------10---9-------------9------------------10-10--|
D|----------0----0---10--10--------10-------8---10--10-----|
A|----------------------0-------------0---8---8-----8------|
E|-8-8/10-10----------------------------6------------------|

e|---------------------------------------------------------|
B|---------------------------------------------------------|
G|------------10---9---------9h10-9------------------5---5-|
D|----------0----0---10---10--------10-------8---10--5---5-|
A|----------------------0--------------0---8---8-------8---|
E|-8-8/10-10-----------------------------6-----------------|

e|---------------------------------------------------------|
B|----------------------------10---------------------------|
G|------------10---9-------------9------------------10~----|
D|----------0----0---10--10--------10-------8---10--10~----|
A|----------------------0-------------0---8---8-----8~-----|
E|-8-8/10-10----------------------------6------------------|

ESTRIBILLO
2) D    F#m   G
   No sé distinguir entre besos y 
   A
   raices 
   D      F#m    G
   No sé distinguir lo complicado 
   A
   de lo simple 


DF#m
y ahora estás en mi lista de 
G      A
promesas a olvidar 
D   F#m
todo arde si le aplicas la chispa 
G    A
adecuada 
e|-----------------------------------------------------|
B|-----------7--7--5-7-10--10--8h10p8-7h8p7-5h7p5------|
G|-7--7-6--7-------------------------------------7h9p7-|
D|-----------------------------------------------------|
A|-----------------------------------------------------|
E|-----------------------------------------------------|

e|--------------------------------------|
B|----------7-7--5-7-10--10--8h10-7h8-5-|
G|-7-7-6--7-----------------------------|
D|--------------------------------------| x2
A|--------------------------------------|
E|--------------------------------------|

Fin
Con distorsión
e|--5-5-5-5-5--5-5-5-5-5---1-1-1-1-1--3-3-3-3-3----|
B|--6-6-6-6-6--5-5-5-5-5---1-1-1-1-1--3-3-3-3-3----|
G|--7-7-7-7-7--7-7-7-7-7---3-3-3-3-3--5-5-5-5-5----|
D|--7-7-7-7-7--7-7-7-7-7---3-3-3-3-3--5-5-5-5-5----|
A|--5-5-5-5-5--5-5-5-5-5---1-1-1-1-1--3-3-3-3-3----|
E|--5-5-5-5-5--5-5-5-5-5---1-1-1-1-1--3-3-3-3-3----|

e|--5-5-5-5-5--3-3-3-3-3---1-1-1-1-1--3-3-3-3-3----|
B|--6-6-6-6-6--3-3-3-3-3---1-1-1-1-1--3-3-3-3-3----|
G|--7-7-7-7-7--5-5-5-5-5---3-3-3-3-3--5-5-5-5-5----|
D|--7-7-7-7-7--5-5-5-5-5---3-3-3-3-3--5-5-5-5-5----|
A|--5-5-5-5-5--3-3-3-3-3---1-1-1-1-1--3-3-3-3-3----|
E|--5-5-5-5-5--3-3-3-3-3---1-1-1-1-1--3-3-3-3-3----|

e|--5-5-5-5-5--5-5-5-5-5---1-1-1-1-1--3-3-3-3-3----|
B|--6-6-6-6-6--5-5-5-5-5---1-1-1-1-1--3-3-3-3-3----|
G|--7-7-7-7-7--7-7-7-7-7---3-3-3-3-3--5-5-5-5-5----|
D|--7-7-7-7-7--7-7-7-7-7---3-3-3-3-3--5-5-5-5-5----|
A|--5-5-5-5-5--5-5-5-5-5---1-1-1-1-1--3-3-3-3-3----|
E|--5-5-5-5-5--5-5-5-5-5---1-1-1-1-1--3-3-3-3-3----|

e|--5-5-5-5-5--3-3-3-3-3---1-1-1-1-1--3-3-3-3-3----|
B|--6-6-6-6-6--3-3-3-3-3---1-1-1-1-1--3-3-3-3-3----|
G|--7-7-7-7-7--5-5-5-5-5---3-3-3-3-3--5-5-5-5-5----|
D|--7-7-7-7-7--5-5-5-5-5---3-3-3-3-3--5-5-5-5-5----|
A|--5-5-5-5-5--3-3-3-3-3---1-1-1-1-1--3-3-3-3-3----|
E|--5-5-5-5-5--3-3-3-3-3---1-1-1-1-1--3-3-3-3-3----|

...la chispa adecuada
e|----------------------|
B|----------------------|
G|---------10---9-------|
D|-------0----0---10~---|
A|----------------------|
E|-8/10-----------------|
Tap to rate this tab
 
# A B C D E F G H I J K L M N O P Q R S T U V W X Y Z