Guitaretab - guitar tabs
Song name
# A B C D E F G H I J K L M N O P Q R S T U V W X Y Z

Heroes Del Silencio - La Chispa Adecuada tab

Song: La Chispa Adecuada
Band: Heroes Del Silenco
Album: Avalancha


Intro I

e|--0-----------------------------------------------------------------|
B|--3-----------------------------------------------------------------|
G|--2---2-3-5-5/7--5-5h7--5h7--7-7/8-7-5-7--7-9-9-9/10--7-5--5h7-2----|
D|--0-----------------------------------------------------------------|
A|--------------------------------------------------------------------|
E|--------------------------------------------------------------------|


e|--5---5--5-3-5-6--5-3-1-1h3-1-0-1-0-------------|
B|--3---------------------------------3-3--1-1h3-3|
G|--2---------------------------------------------|
D|------------------------------------------------|
A|------------------------------------------------|
E|------------------------------------------------|


Intro II
[ Tab from: http://www.guitaretab.com/h/heroes-del-silencio/8171.html ]
e|-------------------------------------------------------------------|
B|-----------6----5--------5h6--5------------------------------------|
G|---------7----7---5----5--------5-----------------5----5-----------|
D|-----------------------------------------8----10--5----------------|
A|-3-3/5-5-------------------------------8----8--------8-------3-3/5-|
E|--------------------5-------------5-6------------------------------|


e|--------------------5---------------------------------------|
B|------6----5--------5--5------------------------------------|
G|----7----7---5----5------5--------------------10------------|
D|----------------------------------8----10-----10----10------|
A|-5------------------------------8----8-----------8---8------|
E|---------------5-----------5-6------------------------------|


e|-------------------------------------------------------------------|
B|-----------6----5--------5h6--5------------------------------------|
G|---------7----7---5----5--------5-----------------5----5-----------|
D|-----------------------------------------8----10--5----------------|
A|-3-3/5-5-------------------------------8----8--------8-------3-3/5-|
E|--------------------5-------------5-6------------------------------|


e|--------------------5---------------------------------------|
B|------6----5--------5--5--------------------6--6p5----------|
G|----7----7---5----5------5------------------5------7--------|
D|----------------------------------8----10------------7------|
A|-5------------------------------8----8-----------------8----|
E|---------------5-----------5-6------------------------------|
Related for La Chispa Adecuada tab
La Chispa Adecuada chords by Heroes Del Silencio