Song name
# A B C D E F G H I J K L M N O P Q R S T U V W X Y Z

Heroes Of Heartache - My Last Letter tab

Hey guys! This is my first tab, so i hope you like it! Enjoy

Standard Tuning!

Verse
E|-------------------------------------------------------------------|
B|--------------------------2----------------------------------------|
G|-------------------------------2---------1-------------2-----------|
D|----------------------------------------------2-------------0------|
A|-----------4/5--5----------------2---------------0-----------------|
E|--2-2--------------------------------------------------------------|

Chorus
E|-------------------------------------------------------------------|
B|-------------------------------------------------------------------|
G|-------4b2-----------4b2----4/7--6---------------------------------|
D|-------------4--2--------------------------------------------------|
A|-------------------------------------------------------------------|
E|-------------------------------------------------------------------|

And repeat it as it comes (: I wrote this from what i heard so i hope it fits okay! Enjoy!
Tap to rate this tab
# A B C D E F G H I J K L M N O P Q R S T U V W X Y Z