Song name
# A B C D E F G H I J K L M N O P Q R S T U V W X Y Z

Heroesforsale - Seraph tab

This tab is 100% correct 

Its played in drop D

INTRO AND CHOURUS
E----------------------------------
B----------------------------------
G--------------------12-10101010-99
D-0000-8888-10101010-X--X-X-X-X--XX
A-0000-8888-10101010-10/8-8-8-8 /77
D-0000-8888-10101010---------------

MATT OVER LAPS X8
THEN BOTH TOGETHER X8 (I THINK)
VERSE MATTS PART
E------------
B------------
G----10101010
D-00-X-X-X-X-
A-00-8-8-8-8-
d-00---------
VERSE OST PART
"(its only the 2nd half of verse 1+2 but both om the last verse)"
E--------------
B--------------
G--------------
D--------------
A-0-3-2-0-5-0-0
D-0-3-2-0-5-0-0
0N THE VERSE FIGURE IT OUT

INTERLUDE
E-------------------------------------------
B-------------------------------------------
G-----17-15151515-1414---------12 \101010-99
D-000----X-X-X-X--X-X-----0000-X--X-X-X-X-XX
A-000-15/13131313/1212----0000-10/8-8-8-8/77
D-000---------------------0000--------------
MATTS PART ABOVE          OSTS PART ABOVE

"NO MASSIVE SOLO'S THEN?"
E-----------------------
B-1313-1515151515-131313
G-X-X--X-X-X-X-X--X-X-X-      X2
D-10-/-1212121212/101010
A-----------------------
D----------------------- 

"HAVE FUN PLAYING THEN I DO"
TABED BY MATT RHOADS 
PUT ON THE SITE BY STEVE MCKENNA
Tap to rate this tab
 
# A B C D E F G H I J K L M N O P Q R S T U V W X Y Z