Song name
# A B C D E F G H I J K L M N O P Q R S T U V W X Y Z

Heroin And Your Veins - Sand In Lungs tab

Heroin And Your Veins - Sand In Lungs

Tuning:standard

e|-----------------------------------------------|
B|-5-------------------------------------------5-|
G|------4-5p4-4----4-5p4-4----4-5p4---4-5----7---|
D|----------------------------------7------------|
A|-----------------------------------------------|
E|-----------------------------------------------|



e|-------------------------5----------5-7p5----7------|
B|-8----5-------8----5-----------5------------------8-|
G|----------------------------------------------------|
D|----------------------------------------------------|
A|----------------------------------------------------|
E|----------------------------------------------------|



e|------------------------------|
B|-8---------------8--------5---|
G|------5-4-5-7---------5-4---5-|
D|------------------------------|
A|------------------------------|
E|------------------------------|

It's not very accurate, in fact.

Official website: http://www.heroinandyourveins.net/


p - pull-off

Tap to rate this tab
# A B C D E F G H I J K L M N O P Q R S T U V W X Y Z