Song name
# A B C D E F G H I J K L M N O P Q R S T U V W X Y Z

Heroin And Your Veins - The First Pain tab

Heroin and your Veins - The First Pain

tuning: standard



e|---------------------------------------------------------------|
B|---------------------------------------------------------------|
G|---------------------------------------------------------------|
D|------------------------------------2--------------------------|
A|-0-2-3----------0-2-3-----------0-2-------------0-2-3----------|
E|-------2-0-2----------2-0-2-----------2-0-2-----------2-0-2----|



e|-------------------------------------------------|
B|-------------------------------------------------|
G|-------------------------------------------------|
D|---------------------2---------------------------|
A|-0-2-3-----------0-2-------------0-2-3-----------|
E|-------2-0-2-----------2-0-2-----------2-0-2-----|



e|---------------------------------|
B|---------------------------------|
G|---------------------------------|
D|-----3-2-3-2---------2-3-2-3-----|
A|-0-2-------------0-2-------------|
E|---------------------------------|



e|------------------------------------------------------------|
B|---------------------5-3---------------------------6-5------|
G|---5-4---------5-4--------------5-4----------5-4------------|
D|-------2-----------2----------------2------------2----------|
A|-0-----------0----------------0------------0----------------|
E|------------------------------------------------------------|
Tap to rate this tab
 
# A B C D E F G H I J K L M N O P Q R S T U V W X Y Z