Song name
# A B C D E F G H I J K L M N O P Q R S T U V W X Y Z

Herois Do Mar - Paixao chords

Highlighted       Show chord diagrams
-------------------------------------------------------------------------------
                             PAIXÃO - HERÓIS DO MAR
-------------------------------------------------------------------------------
Tabbed by: Nytrogod
Email: pmvtl@hotmail.com

Tuning: Standard (EADGBe)


INTRO

Em

   Dm           Em             Am       Dm           Em             Am
e|-----------------------------------------------------------------12--|
B|---------13--12------12-----------------------13--12------12---------|
G|--12-14---------14------12--9----------12-14---------14------12------|
D|---------------------------------------------------------------------|
A|---------------------------------------------------------------------|
E|---------------------------------------------------------------------|


1st VERSE

Dm         Em   Am
 Jurei ser eu
Dm        Em   Am
 O teu luar
Dm          Em   Am
 Brilhar só eu
   Dm     Em   Am
No teu olhar



PRE-CHORUS

                     F#m                C#m
                    (wooooooo)      (ahhhhhhh)
e|-------------------------------------------------------------|
B|--13--12---------------------------------10--9--7--9---------|
G|----------14--12--11----------------------------------9------|    (x2)
D|---------------------------------------------------------11--|
A|-------------------------------------------------------------|
E|-------------------------------------------------------------|


CHORUS
                         __
B                          |
 Paixão                    |
D/A    E/G#                |
 (Paixão!)                 |
    F#            B        |
Não vais fugir de mim      | (x2)  (LAST TIME, END ON Em )
                           |
 Serás                     |
B/A    E/G#                |
 (Paixão!)                 |
 F#    B                 __|
Até ao fim



2nd VERSE

Dm        Em   Am
 Oh por favor
Dm         Em   Am
 Vá lá, sorri
Dm             Em   Am
 Dou-te esta flor,
   Dm       Em   Am
Um beijo a ti


PRE-CHORUS

CHORUS x4  (LAST TIME, END ON Am )

VERSE (INSTRUMENTAL)

PRE-CHORUS

CHORUS x2

Then, the CHORUS x2 one half-step up:

C
 Paixão
D#/A#  F/A
 (Paixão!)
    G             C
Não vais fugir de mim

 Serás
D#/A#  F/A
 (Paixão!)
 G     C
Até ao fim

FADE-OUT


END
Tap to rate this tab
# A B C D E F G H I J K L M N O P Q R S T U V W X Y Z