Song name
# A B C D E F G H I J K L M N O P Q R S T U V W X Y Z

Herrero Y Armenteros - Venezuela tab

-------------------------------------------------------------------------------
			     VENEZUELA! - Herrero y Armenteros
-------------------------------------------------------------------------------
Tabbed by: Richards Viña
Email: @Rvinam

Tuning: Standard

e|---------------------------------------------------------------------------|
B|---------------------------------------------------------------------------|
G|------------------------------------------------------------5---4----------|
D|--------5--5--7-----5--7--9-----7--5--------------5-------5----------------|
A|----5----------------------------------5--------5---5--7-------------------|
E|---------------------------------------------------------------------------|

e|---------------------------------------------------------------------------|
B|---------------------------------------------------------------------------|
G|----4---4--4--5--4----4-----------------------------4----------------------|
D|--------------------7------7--5--5---------7--7--7----7-------5--4---------|
A|-----------------------------------------------------------7---------------|
E|---------------------------------------------------------------------------|

----Se repite la primera línera---- (OJO: Pero no se toca la segunda)

e|---------------------------------------------------------------------------|
B|---------------------------------------------------------------------------|
G|-----4--4-------------------4--7---7--5--4--------------4------------------|
D|-------------7--7--5------------------------------5--7------7--5---4--5----|
A|---------------------------------------------------------------------------|
E|---------------------------------------------------------------------------|

e|---------------------------------------------------------------------------|
B|--------------------------5----------------------------5-------------------|
G|-----4--5--7---4--7----4-----7--5--4--------------4-------5----------------|
D|--------------------------------------------5--7---------------7--5---4----|
A|---------------------------------------------------------------------------|
E|---------------------------------------------------------------------------|

e|---------------------------------------------------------------------------|
B|---------------------------------------------------------------------------|
G|------------------------------4--5--7--------------------4-----------------|
D|----------5-------7--------------------5---------------5-----7--5----------|
A|-----5--7------5-----5------------------------------5----------------------|
E|---------------------------------------------------------------------------|




                          ¡¡¡VIVA VENEZUELA!!!


Tap to rate this tab
 
# A B C D E F G H I J K L M N O P Q R S T U V W X Y Z