Song name
# A B C D E F G H I J K L M N O P Q R S T U V W X Y Z

Hersh Kristin - Velvet Days tab

#----------------------------------PLEASE NOTE---------------------------------#
#This file is the author's own work and represents their interpretation of the #
#song. You may only use this file for private study, scholarship, or research. #
#------------------------------------------------------------------------------##
Date: Thu, 6 Jul 1995 13:07:43 -0400 (EDT)
From: Edmond Hum 

VELVET DAYS

by kristin hersh
from 'hips and makers'
transcribed by edmond hum (rlp@interlog.com)


 ;-)


--- start ---



 e-------------0-----0-----------------------------------|
*d-------0-------0---------0-------0---------------------|
 g---------1-----------1-----1---1-----------------------|
 d-----2-----2-----2-----2-----0-------------------------|
 a---2---------------------------------------------------|
*d-------------------------------------------------------|


 (repeat)
 e||-------------0-----0---------------------------------|
*d||-.-----0-------0---------0-------0-------------------|
 g||---------1-----------1-----1---0---------------------|
 d||-.---2-----2-----2-----2-----0-----------------------|
 a||---2-------------------------------------------------|
*d||-----------------------------------------------------|

 e-------------------0------10-------------------------||
*d-----------0---------0-------------0--------0------.-||
 g-------------11--------------11------11---0----------||
 d--------12------12-----12-------12------0----------.-||
 a-----12----------------------------------------------||
*d-----------------------------------------------------||


                                  E7
 e-------------0---------------0-------|---0-----------||
*d-------0-------0-------0-------0-----|---0-----------||
 g---------7-------0-------2-------0---|---1-----------||
 d-----8-----8---------3-----3---------|---2-----------||
 a---8---------------3-----------------|---2-----------||
*d-------------------------------------|---------------||


Velvet Days you make your little way
Pouring rain make that face
You make my little day
I laugh till my heart drops down deep
You break your little freak
We break don't we break don't we

Blush and knock your knees
That's your girl breathing
I laugh till my heart stops
Hold your shark skin thing
That's your boy breathing
I laugh till my heart stops

Blush and breathe
I laugh till I can't see
Down deep you break your little creep
I laugh

Velvet Days you make your little way
Pouring rain make that face
You make my little day
I laugh till my heart drops down deep
You break your little freak
We break don't we break don't we

Listen blush and breathe
That's your soul kissing
I Laugh

--- end ---
Tap to rate this tab
 
# A B C D E F G H I J K L M N O P Q R S T U V W X Y Z