Song name
# A B C D E F G H I J K L M N O P Q R S T U V W X Y Z

Hevance - Aku Nemu tab

AKU NEMU  Hevance Solo Tab By R.R

h - hammer on 
p - pull off 
b - bend string up
r - release bend
/ - slide up
\ - slide down
v - vibrato

E|------------------|------------------|--------------16----|---------------|
B|------------------|------------------|--17----17-19----19-|--16p17-14p16--|
G|--9---9-11-13-11--|--9---9-11-13-11--|-----16-------------|---------------|
D|----9-------------|----9-------------|--------------------|---------------|
A|------------------|------------------|--------------------|---------------|
E|------------------|------------------|--------------------|---------------|

E|---------------------------------|----------------------------------------|
B|---------------------------------|----------------------------------------|
G|--16-14-13p14--------------------|----------------------------------------|
D|--------------16-14-13p14-16-14--|--14-14-13-11----------------14-14-13-11|
A|---------------------------------|--------------14-12-11-12-14------------|
E|---------------------------------|----------------------------------------|

E|------------------|-----------------------16------------------------------|
B|------------------|-----17-------19----------------19-------17------------|
G|------------------|--16----16-16----16-16----16-16----16-16---------------|
D|------------------|-------------------------------------------------------|
A|--14-12-11-12-14--|-------------------------------------------------------|
D|------------------|-------------------------------------------------------|

E|-----------------------------------------14-16-17-19-21b22-22r21----------|
B|--------------------------------14-16-17-------------------------17-------|
G|--------13-14-16-------13-14-16-------------------------------------------|
D|--14-16----------14-16----------------------------------------------------|
A|--------------------------------------------------------------------------|
E|--------------------------------------------------------------------------|
Tap to rate this tab
# A B C D E F G H I J K L M N O P Q R S T U V W X Y Z