Hewhocannotbenamed - Superhero tab

Intro
E-----------------------------------------------------------------|
B-----------------------------------------------------------------|
G-2-2-2-2-2-2-2-2-----------------7-7-7-7-7-7-7-7-9-9-9-9-9-9-9-9-|
D-2-2-2-2-2-2-2-2-4-4-4-4-4-4-4-4-7-7-7-7-7-7-7-7-9-9-9-9-9-9-9-9-|
A-0-0-0-0-0-0-0-0-4-4-4-4-4-4-4-4-5-5-5-5-5-5-5-5-7-7-7-7-7-7-7-7-|
E-----------------2-2-2-2-2-2-2-2---------------------------------|
 (PALMUTED)

E------------------------------------------------|
B------------------------------------------------|
G------------------7-7-7-7-7-7-7-7-9-9-9-9-9-9---|
D-7---6---4--------7-7-7-7-7-7-7-7-9-9-9-9-9-9---|
A-7---6---4--------5-5-5-5-5-5-5-5-7-7-7-7-7-7---|
E-5---4---2--------------------------------------|
      
Verse (again palmuted)
E-------------------------------------------------------------------|
B-------------------------------------------------------------------|
G-------------------------------------------------------------------|
D--2-2-2-2-2-2-2-2------------------7-7-7-7-7-7-7-7-9-9-9-9-9-9-9-9-|
A-0-0-0-0-0-0-0-0--4-4-4-4-4-4-4-4-5-5-5-5-5-5-5-5-7-7-7-7-7-7-7-7--|
E-----------------2-2-2-2-2-2-2-2-----------------------------------|

E------------------------------------------------|
B------------------------------------------------|
G------------------7-7-7-7-7-7-7-7-9-9-9-9-9-9---|
D-7---6---4--------7-7-7-7-7-7-7-7-9-9-9-9-9-9---|
A-7---6---4--------5-5-5-5-5-5-5-5-7-7-7-7-7-7---|
E-5---4---2--------------------------------------|

Chorus                          x6
E---------------------------------|-----------------|
B---------------------------------|-----------------|
G-7-7-7-7-7-7-7-7-----------------|-7-7-7-7-7-7-7-7-|
D-7-7-7-7-7-7-7-7-7-7-7-7-7-7-7-7-|-7-7-7-7-7-7-7-7-|
A-5-5-5-5-5-5-5-5-7-7-7-7-7-7-7-7-|-5-5-5-5-5-5-5-5-|
E-----------------5-5-5-5-5-5-5-5-|-----------------|

Behind Solo
E-----------------------------------------------------------------|
B-----------------------------------------------------------------|
G-2-2-2-2-2-2-2-2-----------------7-7-7-7-7-7-7-7-9-9-9-9-9-9-9-9-|
D-2-2-2-2-2-2-2-2-4-4-4-4-4-4-4-4-7-7-7-7-7-7-7-7-9-9-9-9-9-9-9-9-|
A-0-0-0-0-0-0-0-0-4-4-4-4-4-4-4-4-5-5-5-5-5-5-5-5-7-7-7-7-7-7-7-7-|
E-----------------2-2-2-2-2-2-2-2---------------------------------|

Verse (again palmuted)
E-------------------------------------------------------------------|
B-------------------------------------------------------------------|
G-------------------------------------------------------------------|
D--2-2-2-2-2-2-2-2------------------7-7-7-7-7-7-7-7-9-9-9-9-9-9-9-9-|
A-0-0-0-0-0-0-0-0--4-4-4-4-4-4-4-4-5-5-5-5-5-5-5-5-7-7-7-7-7-7-7-7--|
E-----------------2-2-2-2-2-2-2-2-----------------------------------|

E------------------------------------------------|
B--------------------7-------7-------------------|
G------------------7---7-------7---9-9-9-9-9-9---|
D-7---6---4--------7-----7-------7-9-9-9-9-9-9---|
A-7---6---4--------5-------5-------7-7-7-7-7-7---|
E-5---4---2--------------------------------------|

Chorus                          x6
E---------------------------------|---------------------------------|---|
B---------------------------------|---------------------------------|---|
G-7-7-7-7-7-7-7-7-----------------|-7-7-7-7-7-7-7-7-7-7-7-7-7-7-7-7-|---|
D-7-7-7-7-7-7-7-7-7-7-7-7-7-7-7-7-|-7-7-7-7-7-7-7-7-7-7-7-7-7-7-7-7-|-7-|
A-5-5-5-5-5-5-5-5-7-7-7-7-7-7-7-7-|-5-5-5-5-5-5-5-5-5-5-5-5-5-5-5-5-|-7-|
E-----------------5-5-5-5-5-5-5-5-|---------------------------------|-5-|
Tap to rate this tab
 
# A B C D E F G H I J K L M N O P Q R S T U V W X Y Z