Song name
# A B C D E F G H I J K L M N O P Q R S T U V W X Y Z

Hey Mercedes - Absolute Zero Drive tab

INTRO/VERSE(X8)

e [-------------------------------------------------]
B [-------7-----------------------7-----------------]
G [-7-5-7---7-5-7-5---5---5-7-5-7---7-5-7-5---5---5-]
D [-----------------5---7-------------------5---7---]
A [-------------------------------------------------]
E [-------------------------------------------------]

CHORUS(X2)

e [---------------------------------------]
B [---------------------------------------]
G [-------------5-5-5-5-5-5-----------7/5-]
D [-0-0-0-5-5-5-5-5-5-5-5-5-0-0-0-5-5-7/5-]
A [-0-0-0-5-5-5-3-3-3-3-3-3-0-0-0-5-5-5/3-]
E [-0-0-0-3-3-3-------------0-0-0-3-3-----]

SOLO(during last chorus)

e [-------------------------------------------------------------]
B [-15-15-15-12-12-12-15-15-15-12-12-12-15-17-20-17-15-17-20-17-]
G [-------------------------------------------------------------]
D [-------------------------------------------------------------]
A [-------------------------------------------------------------]
E [-------------------------------------------------------------]

e [-------------------------------------20-]
B [-15-15-15-12-12-12-15-15-15-12-12-12----]
G [----------------------------------------]
D [----------------------------------------]
A [----------------------------------------]
E [----------------------------------------]

FINAL CHORUS

e [---------------------------------------------]
B [---------------------------------------------]
G [-------------5-5-5-5-------------5-5-5-5-5-5-]
D [-0-0-0-5-5-5-5-5-5-5-0-0-0-5-5-5-5-5-5-5-5-5-]
A [-0-0-0-5-5-5-3-3-3-3-0-0-0-5-5-5-3-3-3-3-3-3-]
E [-0-0-0-3-3-3---------0-0-0-3-3-3-------------]
Tap to rate this tab
 
# A B C D E F G H I J K L M N O P Q R S T U V W X Y Z