Guitaretab - guitar tabs
Song name
# A B C D E F G H I J K L M N O P Q R S T U V W X Y Z

Hey Monday - Josey tab

Intro lead guitar:
E|----------------------|
B|--------------------8-|
G|-8-8-8-----10-10-10---|
D|-------8-8------------| 3X
A|----------------------|
E|----------------------|

E|------------------|
B|-----------8-8----|
G|-8-8-8---------10-|
D|-------8-8--------|
A|------------------|
E|------------------|

Intro rythym guitar:
E|-------------------------------------------------|
B|-------------------------------------------------|
G|-8-8-8-8-X-X-X-X-X-X-X-X-------------------------|
D|-8-8-8-8-X-X-X-X-X-X-X-X-5-5-5-5-X-X-X-X-X-X-X-X-|
A|-6-6-6-6-X-X-X-X-X-X-X-X-5-5-5-5-X-X-X-X-X-X-X-X-|
E|-------------------------3-3-3-3-X-X-X-X-X-X-X-X-|

E|---------------------------------------------------------------|
B|---------------------------------------------------------------|
G|---------------------------------------------------------------|
D|-6-6-6-6-X-X-X-X-X-X-X-X-3-3-3-3-X-X-X-X-X-X-X-X---------------|
A|-6-6-6-6-X-X-X-X-X-X-X-X-3-3-3-3-X-X-X-X-X-X-X-X---------------|
E|-4-4-4-4-X-X-X-X-X-X-X-X-1-1-1-1-X-X-X-X-X-X-X-X---------------|

Verses:
E|------------------------------------------------------------|
B|------------------------------------------------------------|
G|-8-8-8-8-8-8-8-8-8-8-8-8--8-8--8-8-8-8-8-8-8-8-8-8-8-8------|
D|-8-8-8-8-8-8-8-8-8-8-8-8--8-8--8-8-8-8-8-8-8-8-8-8-8-8--5-6-|
A|-6-6-6-6-6-6-6-6-6-6-6-6--6-6--6-6-6-6-6-6-6-6-6-6-6-6--5-6-|
E|--------------------------------------------------------3-4-|

E|-----------------------------------------------------------|
B|-----------------------------------------------------------|
G|-----------------------------------------------------------|
D|-6-6-6-6-6-6-6-6-6-6-6-6--6-8--8-8-8-8-8-8-8-8-8-8-8-8--10-|
A|-6-6-6-6-6-6-6-6-6-6-6-6--6-8--8-8-8-8-8-8-8-8-8-8-8-8--10-|
E|-4-4-4-4-4-4-4-4-4-4-4-4--4-6--6-6-6-6-6-6-6-6-6-6-6-6--8--|

E|------------------------------------------------------------|
B|------------------------------------------------------------|
G|-8-8-8-8-8-8-8-8-8-8-8-8--8-8--8-8-8-8-8-8-8-8-8-8-8-8------|
D|-8-8-8-8-8-8-8-8-8-8-8-8--8-8--8-8-8-8-8-8-8-8-8-8-8-8--5-6-|
A|-6-6-6-6-6-6-6-6-6-6-6-6--6-6--6-6-6-6-6-6-6-6-6-6-6-6--5-6-|
E|--------------------------------------------------------3-4-|


E|-----------------------------------------------------------|
B|-----------------------------------------------------------|
G|-----------------------------------------------------------|
D|-6-6-6-6-6-6-6-6-6-6-6-6--6-8--8-8-8-8-8-8-8-8-8-8-8-8--8--|
A|-6-6-6-6-6-6-6-6-6-6-6-6--6-8--8-8-8-8-8-8-8-8-8-8-8-8--8--|
E|-4-4-4-4-4-4-4-4-4-4-4-4--4-6--6-6-6-6-6-6-6-6-6-6-6-6--6--|
[ Tab from: http://www.guitaretab.com/h/hey-monday/174360.html ]
Pre-chorus:
E|---------------------------------------------------------------|
B|---------------------------------------------------------------|
G|---------------------------------------------------------------|
D|-3-3--3--5-5--5--6-6--6--8-8--8--3-3--3--5-5--5--6-6--6--8-8--8|
A|-3-3--3--5-5--5--6-6--6--8-8--8--3-3--3--5-5--5--6-6--6--8-8--8|
E|-1-1--1--3-3--3--4-4--4--6-6--6--1-1--1--3-3--3--4-4--4--6-6--6|

E|-----------------|
B|-----------------|
G|-----------------|
D|-8-8-8-8-8-8-8-8-|
A|-8-8-8-8-8-8-8-8-|
E|-6-6-6-6-6-6-6-6-|

Chorus:
E|------------------------------------------------|
B|------------------------------------------------|
G|-8-8-8-8----------------------------------------|
D|-8-8-8-8-4x--6-6-6-6-----3-3-3-3-----6-6-6-6----|
A|-6-6-6-6-----6-6-6-6-4x--3-3-3-3-4x--6-6-6-6-4x-|
E|-------------4-4-4-4-----1-1-1-1-----4-4-4-4----|

Verse  Pre-chorus - Chorus

Cute solo between chorus and bridge:
E|--------------8--------------------------------------|
B|-11-8-11~--11---11-8--------8--------------8---------|
G|---------------------8~--10---10-8-10~--10---10-8----|
D|--------------------------------------------------10-|
A|-----------------------------------------------------|
E|-----------------------------------------------------|

Cute solo's base between chorus and bridge:
E|---------------------------------------------------------------|
B|---------------------------------------------------------------|
G|---------------------------------------------------------------|
D|-3--33--3~--3-5--6--66--6~--6-5--3--33--3~--3-5--6--66--6~--6/3|
A|-3--33--3~--3-5--6--66--6~--6-5--3--33--3~--3-5--6--66--6~--6/3|
E|-1--11--1~--1-3--4--44--4~--4-3--1--11--1~--1-3--4--44--4~--4/1|

Here it's more like bass/drums, so you can play like they do or just make sounds with your guitar:
E|---------8-8-8-8... (II)---------------------------------------|
B|---------------------------------------------------------------|
G|---------------------------------------------------------------|
D|-1~ (I)--------------------------------------------------------|
A|---------------------------------------------------------------|
E|---------------------------------------------------------------|

Slide here and play the last chorus. This is also the instrumental ending.
E|---------------------------------------------------------------|
B|---------------------------------------------------------------|
G|---------------------------------------------------------------|
D|-14/-3---3-3-3-3-----8-8-8-8----5-5-5-5-----8-8-8-8------------|
A|-14/-3---3-3-3-3-4x--8-8-8-8-4x-5-5-5-5-4x--8-8-8-8-4x---------|
E|-12/-1---1-1-1-1-----6-6-6-6----3-3-3-3-----6-6-6-6------------|

Lead guitar will make this with full chords, I guess, so that the lowest notes will be played.

Enjoy!

/ = slide
~ = let ring
Related for Josey tab