Song name
# A B C D E F G H I J K L M N O P Q R S T U V W X Y Z

Hey Monday - 6 Months tab

Hey Monday
6 Months
Standard Tuning
Very simple song to learn =]


Intro:

e |----------------------------------------------------------------------|
b |---3-3-3-3-3-3-3-3-3-3-3-3-3-3-3-3-3-3-3-3-3-3-3-3-3-3-3-3-3----------|
g |---2-2-2-2-2-2-2-2-2-2-2-2---------2-2-2-2-2-2-2-2-2-2-2-2------------|
d |---2-2-2-2-2-2-2-2-----------------2-2-2-2-2-2-2-2--------------------|
a |----------------------------------------------------------------------|
e |----------------------------------------------------------------------|

Verse 1
(D D DU U D DUDU)

Your the direction....
e |------------------|-----------------|-----------------|-------------------|
b |---3----3----3-3--|--3----3----3-3--|--3----3----3-3--|--3----3----3-3----|
g |---2----2----0-0--|--2----2----0-0--|--2----2----0-0--|--2----2----0-0----|
d |---2----0----2-2--|--2----0----2-2--|--2----0----2-2--|--2----0----2-2----|
a |--------2----3-3--|-------2----3-3--|-------2----3-3--|-------2----3-3----|
e |------------------|-----------------|-----------------|-------------------|

Chorus
(D D DU U D DUDU)

Everything you say...
e |---2--------------3----------|
b |---3--------------3----------|
g |---2----2---------0----------|
d |---0----2----2----0----------|
a |-------------2----2----------|
e |------------------3----------| x2

Bridge:
e |-------------------------------------|
b |--3-3-3-3-3-3-3-3-3-3-3-3-3----------|
g |--2-2-2-2-2-2-2-2-2-2-2-2------------|
d |--2-2-2-2-2-2-2-2--------------------|
a |-------------------------------------|
e |-------------------------------------|

Verse 2
(D D DU U D DUDU)

Months going strong now...
e |------------------|-----------------|-----------------|-------------------|
b |---3----3----3-3--|--3----3----3-3--|--3----3----3-3--|--3----3----3-3----|
g |---2----2----0-0--|--2----2----0-0--|--2----2----0-0--|--2----2----0-0----|
d |---2----0----2-2--|--2----0----2-2--|--2----0----2-2--|--2----0----2-2----|
a |--------2----3-3--|-------2----3-3--|-------2----3-3--|-------2----3-3----|
e |------------------|-----------------|-----------------|-------------------|

Chorus
(D D DU U D DUDU)

Everything you say...
e |---2--------------3----------|
b |---3--------------3----------|
g |---2----2---------0----------|
d |---0----2----2----0----------|
a |-------------2----2----------|
e |------------------3----------| x2

Verse 3

So please, give me your hand....
e |---------------------------------------------|
b |---3-3-3-3-3-3-3-3-3-3-3-3-3-3-3-3-----------|
g |---2-2-2-2-2-2-2-2-2-2-2-2-------------------|
d |---2-2-2-2-2-2-2-2---------------------------|
a |---------------------------------------------|
e |---------------------------------------------| x3

As fast as you stole mine...
|-------------3----|
|---3---------3----|
|---2---------0----|
|---2----2----0----|
|--------2----2----|
|-------------3----| 

------------------|
--3----3----3-----|
--2----2----0-----|
--2----0----2-----| (build up on last chord)
-------2----3-----|
------------------|

Chorus

Everything you say....
e |---2--------------3----------|
b |---3--------------3----------|
g |---2----2---------0----------|
d |---0----2----2----0----------|
a |-------------2----2----------|
e |------------------3----------| x2

Ending same as intro:

So please, give me your hand....
e |----------------------------------------------------------------------|
b |---3-3-3-3-3-3-3-3-3-3-3-3-3-3-3-3-3-3-3-3-3-3-3-3-3-3-3-3-3----------|
g |---2-2-2-2-2-2-2-2-2-2-2-2---------2-2-2-2-2-2-2-2-2-2-2-2------------|
d |---2-2-2-2-2-2-2-2-----------------2-2-2-2-2-2-2-2--------------------|
a |----------------------------------------------------------------------|
e |----------------------------------------------------------------------|


Thanks hope this helped :)
Ashley Brogan x

Tap to rate this tab
 
# A B C D E F G H I J K L M N O P Q R S T U V W X Y Z