Song name
# A B C D E F G H I J K L M N O P Q R S T U V W X Y Z

Hey Monday - How You Love Me Now tab

-----------------------------------------------------------------
How You Love Me Now - Hey Monday
-----------------------------------------------------------------
Tabbed by: FOB182

Tuning: Standard

This is how Mike plays the song live, I'm not sure how much of it is in the album 
but it fits if you want to play it with the album version.  I tabbed this by ear and from 
many acoustic performances.  If you have any questions, drop a comment.

Lead- Mike
Intro-
e|---------------------------------------------------------------|
B|-9-7~~--1010-9-6~~--9-7~~--1010-9-6~~--------------------------|
G|---------------------------------------------------------------|x2
D|---------------------------------------------------------------|
A|---------------------------------------------------------------|
E|---------------------------------------------------------------|
   Woah   Wooooahh     Woah   Wooooahh
play the tens faster  then the other notes.

Verse 1-
e|---------------------------------------------------------------|
B|-66666666-77777777-44444444-22222222---------------------------|
G|---------------------------------------------------------------|
D|---------------------------------------------------------------|
A|---------------------------------------------------------------|
E|---------------------------------------------------------------|

e|---8---8---8---8---8---8---8---8-------------------------------|
B|-66-666-666-666-666-666-666-666--------------------------------|
G|---------------------------------------------------------------|
D|---------------------------------------------------------------|
A|---------------------------------------------------------------|
E|---------------------------------------------------------------|

Pre-Chorus-
e|---------------------------------------------------------------|
B|---------------------------------------------------------------|
G|------------------------------8-8-8-8~~------------------------|
D|------------------------------8-8-8-8~~------------------------|
A|-8-8-X-X-X-X------------------8-8-8-8~~------------------------|
E|---------------8-8-X-X-X-X-------------------------------------|

Chorus-
e|---------------------------------------------------------------|
B|---------------------------------------------------------------|
G|---------------------------------------------------------------|
D|---------------------------------------------------------------|x2
A|-8-8-8/10/12-12-12--10-10-10/12\10\8---------------------------|
E|---------------------------------------------------------------|

e|---------------------------------------------------------------|
B|---------------------------------------------------------------|
G|---------------------------------------------------------------|
D|---------------------------------------------------------------|
A|-8-8-8/10/12-12-12-12\10-10-10-10-10-10-10-10------------------|
E|---------------------------------------------------------------|

e|---------------------------------------------------------------|
B|---------------------------------------------------------------|
G|-------------------------10-10-10-10-10-10-10-10---------------|
D|-------------------------10-10-10-10-10-10-10-10---------------|
A|-8--8--8--8--8--8--8--8--8--8--8--8--8--8--8--8----------------|
E|---------------------------------------------------------------|
it would probably sound fine if you made them all power chords but i prefer the sound it 
off with everynote muted except the a string, plus if they were all power chords the 
8 powerchords would have to be changed to something else.

verse 2-
e|---------------------------------------------------------------|
B|---------------------------------------------------------------|
G|---------------------------------------------------------------|
D|---------------------------------------------------------------|
A|-8-8-/12-7-7-77-8-8-8-8-8-8-8-8-8------------------------------|
E|---------------------------------------------------------------|

e|---8---8---8---8---8---8---8---8-------------------------------|
B|-66-666-666-666-666-666-666-666--------------------------------|
G|---------------------------------------------------------------|
D|---------------------------------------------------------------|
A|---------------------------------------------------------------|
E|---------------------------------------------------------------|

Pre-Chorus
e|---------------------------------------------------------------|
B|---------------------------------------------------------------|
G|------------------------------8-8-8-8~~------------------------|
D|------------------------------8-8-8-8~~------------------------|
A|-8-8-X-X-X-X------------------8-8-8-8~~------------------------|
E|---------------8-8-X-X-X-X-------------------------------------|

Chorus-
e|---------------------------------------------------------------|
B|---------------------------------------------------------------|
G|---------------------------------------------------------------|
D|---------------------------------------------------------------|x2
A|-8-8-8/10/12-12-12--10-10-10/12\10\8---------------------------|
E|---------------------------------------------------------------|

e|---------------------------------------------------------------|
B|---------------------------------------------------------------|
G|---------------------------------------------------------------|
D|---------------------------------------------------------------|
A|-8-8-8/10/12-12-12-12\10-10-10-10-10-10-10-10------------------|
E|---------------------------------------------------------------|

e|---------------------------------------------------------------|
B|---------------------------------------------------------------|
G|-------------------------10-10-10-10-10-10-10-10---------------|
D|-------------------------10-10-10-10-10-10-10-10---------------|
A|-8--8--8--8--8--8--8--8--8--8--8--8--8--8--8--8----------------|
E|---------------------------------------------------------------|

Bridge or Breakdown whatever its called-
e|---------------------------------------------------------------|
B|---------------------------------------------------------------|
G|---------------------------------------------------------------|
D|---------------------------------------------------------------|
A|-88888888/10/1212121212121212-1313131313131313-15-14-13-12-----|
E|---------------------------------------------------------------|
(Those are 12s and 13s)
e|---------------------------------------------------------------|
B|---------------------------------------------------------------|
G|---------------------------------------------------------------|
D|------------------------------10-10-10-10-10-10-10-10----------|
A|88-X-X-88-X-X-8-8-8-8-8-8-8-8-8--8--8--8--8--8--8--8-----------|
E|---------------------------------------------------------------|
Live, or

e|---------------------------------------------------------------|
B|---------------------------------------------------------------|
G|---------------------------------------------------------------|
D|---------------------------------------------------------------|
A|-88888888-1010101010101010-1212121212121212-1515151515151515---|
E|---------------------------------------------------------------|
Album (those are tens 12s and 15s)

Re intro-
e|---------------------------------------------------------------|
B|-9-7~~--1010-9-6~~--9-7~~--1010-9-6~~--------------------------|
G|---------------------------------------------------------------|x2
D|---------------------------------------------------------------|
A|---------------------------------------------------------------|
E|---------------------------------------------------------------|

Bridge or Breakdown whatever the other one isnt-
e|---------------------------------------------------------------|
B|---------------------------------------------------------------|
G|-10~~~---------7~~~--3~~~--------------------------------------|
D|-10~~~-10~~~---7~~~--3~~~--------------------------------------|
A|-8-~~~-10~~~---5~~~--1~~~--------------------------------------|
E|-------8-~~~---------------------------------------------------|

e|---8---8---8---8---8---8---8---8-------------------------------|
B|-66-666-666-666-666-666-666-666--------------------------------|
G|---------------------------------------------------------------|
D|---------------------------------------------------------------|
A|---------------------------------------------------------------|
E|---------------------------------------------------------------|
come in at the same time as rythm guitars palm muting.

Chorus-
e|---------------------------------------------------------------|
B|---------------------------------------------------------------|
G|---------------------------------------------------------------|
D|---------------------------------------------------------------|x2
A|-8-8-8/10/12-12-12--10-10-10/12\10\8---------------------------|
E|---------------------------------------------------------------|

e|---------------------------------------------------------------|
B|---------------------------------------------------------------|
G|---------------------------------------------------------------|
D|---------------------------------------------------------------|
A|-8-8-8/10/12-12-12-12\10-10-10-10-10-10-10-10------------------|
E|---------------------------------------------------------------|

e|---------------------------------------------------------------|
B|---------------------------------------------------------------|
G|-------------------------10-10-10-10-10-10-10-10---------------|
D|-------------------------10-10-10-10-10-10-10-10---------------|
A|-8--8--8--8--8--8--8--8--8--8--8--8--8--8--8--8----------------|
E|---------------------------------------------------------------|

e|---------------------------------------------------------------|
B|---------------------------------------------------------------|
G|-10------------------------------------------------------------|
D|-10------------------------------------------------------------|
A|-8-------------------------------------------------------------|
E|---------------------------------------------------------------|
Not really sure what else fits so just play the above note till the end

I may upload new cover to youtube to show the timing and everything, but thats still not 
i also may update later with rythm guitar seeing as its very easy to paly, but for now 
the lead.

| /  slide up
| \  slide down
| h  hammer-on
| p  pull-off
| ~  vibrato
| +  harmonic
| x  Mute note
Tap to rate this tab
# A B C D E F G H I J K L M N O P Q R S T U V W X Y Z