Song name
# A B C D E F G H I J K L M N O P Q R S T U V W X Y Z

Hey Monday - Candles Acoustic Live tab

        DROP......  D
tab by: silvaboklo.... Enjoy :)

           Candles Acoustic

          intro
-3-----3-------5------3----------------------------------|
----3------3-------3-------3-----------------------------|
---------------------------------------------------------|
-5-----5-------5------5----------------------------------|
---------------------------------------------------------|
---------------------------------------------------------|

-3-----3-------5------3----------------------------------|
----3------3-------3-------3-----------------------------|
---------------------------------------------------------|
-4-----4-------4------4----------------------------------|
---------------------------------------------------------|
---------------------------------------------------------|


-3-----3-------5------3-----------3----------------------|
----3------3-------3-------3------3----------------------|
---------------------------------------------------------|
-2-----2-------2------2---0------------------------------|
--------------------------------------3------------------|
---------------------------------------------------------|

            verse
guitar 1

 C       G
-3---------------------------------------------------------|
-3---------------------------------------------------------|
-----------------------------------------------------------|
--------- 5------------------------------------------------|
-3-------5-------------------------------------------------|
----------5------------------------------------------------|

GUITAR 2

-----------3- - ---3------------------3---------3-------------------|
------3------3-------3-----------3-----3----------3-----------------|
--------------------------------------------------------------------|
--------------------------------------------------------------------|
--3-------------3----------5---------------5------------------------|
-----------------------------5---------------5----------------------|


            Chorus
-3-----3-------5------3----------------------------------|
----3------3-------3-------3-----------------------------|
---------------------------------------------------------|
-5-----5-------5------5----------------------------------|
---------------------------------------------------------|
---------------------------------------------------------|

-3-----3-------5------3----------------------------------|
----3------3-------3-------3-----------------------------|
---------------------------------------------------------|
-0-----0-------0------0----------------------------------|
---------------------------------------------------------|
---------------------------------------------------------|

-3-----3-------5------3----------------------------------|
----3------3-------3-------3-----------------------------|
---------------------------------------------------------|
-2-----2-------2------2----------------------------------|
---------------------------------------------------------|
---------------------------------------------------------|

-3-----3------3/5--------5-------------------------------|
----3------3-----------5-------5-------------------------|
---------------------------------------------------------|
---------------------------------------------------------|
-3-------------3/5---------------------------------------|
---------------------------------------------------------|
Tap to rate this tab
# A B C D E F G H I J K L M N O P Q R S T U V W X Y Z