Hey Monday - Wish You Were Here tab

-------------------------------------------------------------------------------
			     WISH YOU WERE HERE - Hey Monday
-------------------------------------------------------------------------------


       


Here’s my tab of Wish You Here from Hey Monday’s upcoming album “Beneath It All”.
Make sure you get it when it comes out on August 17th! Enjoy!

Tuning: Drop-D

[Intro]

e|---------------------------------------------------------------------------|
B|---------------------------------------------------------------------------|
G|---------------------------------------------------------------------------|
D|-5-5-5-5-5-1-1-3-3-3-3-3-3-3-3---5-5-5-5-5-0-0--1~-------------------------|
A|-5-5-5-5-5-1-1-3-3-3-3-3-3-3-3---5-5-5-5-5-0-0--1~-------------------------|
D|-5-5-5-5-5-1-1-3-3-3-3-3-3-3-3---5-5-5-5-5-0-0--1~-------------------------|

[Verse 1] 

e|---------------------------------------------------------------------------|
B|---------------------------------------------------------------------------|
G|----------1010101010101010-1212121212121212-88888888------(x2)-------------|
D|-88888888-1010101010101010-1212121212121212-88888888-----------------------|
A|-88888888-8-8-8-8-8-8-8-8--1010101010101010-66666666-----------------------|
D|-88888888------------------------------------------------------------------|


[Pre-chorus] 

e|---------------------------------------------------------------------------|
B|---------------------------------------------------------------------------|
G|-7-7-7--8-8-8--10-10-10--12-12-12----7-7-7--8-8-8----5~--------------------|
D|-7-7-7--8-8-8--10-10-10--12-12-12----7-7-7--8-8-8----5~--------------X-X-X-|
A|-5-5-5--6-6-6--8--8--8---10-10-10----5-5-5--6-6-6----3~--------------X-X-X-|
D|---------------------------------------------------------------------X-X-X-|
   x x    x x    x  x      x  x        x x    x x
 
[Chorus]

e|---------------------------------------------------------------------------|
B|---------------------------------------------------------------------------|
G|----------88888888-------------------88888888----------10101010101010101010|
D|-55555555-88888888-88888888-33333333-88888888-88888888-10101010101010101010|
A|-55555555-66666666-88888888-33333333-66666666-88888888-8-8-8-8-8-8-8-8-8-8-|
D|-55555555----------88888888-33333333----------88888888---------------------|

e|---------------------------------------------------------------------------|
B|---------------------------------------------------------------------------|
G|1010-----------------------------------------------------------------------|
D|1010-5555-3333-11111111-5555-3333-5555-11-33333333-55555-00-1~-------------|
A|8-8--5555-3333-11111111-5555-3333-5555-11-33333333-55555-00-1~-------------|
D|-----5555-3333-11111111-5555-3333-5555-11-33333333-55555-00-1~-------------|


[Verse 2]

e|---------------------------------------------------------------------------|
B|---------------------------------------------------------------------------|
G|----------1010101010101010-1212121212121212-88888888------(x2)-------------|
D|-88888888-1010101010101010-1212121212121212-88888888-----------------------|
A|-88888888-8-8-8-8-8-8-8-8--1010101010101010-66666666-----------------------|
D|-88888888------------------------------------------------------------------|



[Pre-chorus]

e|---------------------------------------------------------------------------|
B|---------------------------------------------------------------------------|
G|-7-7-7--8-8-8--10-10-10--12-12-12----7-7-7--8-8-8----5~--------------------|
D|-7-7-7--8-8-8--10-10-10--12-12-12----7-7-7--8-8-8----5~--------------X-X-X-|
A|-5-5-5--6-6-6--8--8--8---10-10-10----5-5-5--6-6-6----3~--------------X-X-X-|
D|---------------------------------------------------------------------X-X-X-|
   x x    x x    x  x      x  x        x x    x x


[Chorus]

e|---------------------------------------------------------------------------|
B|---------------------------------------------------------------------------|
G|----------88888888-------------------88888888----------10101010101010101010|
D|-55555555-88888888-88888888-33333333-88888888-88888888-10101010101010101010|
A|-55555555-66666666-88888888-33333333-66666666-88888888-8-8-8-8-8-8-8-8-8-8-|
D|-55555555----------88888888-33333333----------88888888---------------------|

e|---------------------------------------------------------------------------|
B|---------------------------------------------------------------------------|
G|1010-----------------------------------------------------------------------|
D|1010-5555-3333-11111111-5555-3333------------------------------------------|
A|8-8--5555-3333-11111111-5555-3333------------------------------------------|
D|-----5555-3333-11111111-5555-3333------------------------------------------|

[Bridge]

e|---------------------------------------------------------------------------|
B|---------------------------------------------------------------------------|
G|-55555555----------88888888-10-10-10-55555555----------10101010101010101010|
D|-55555555-88888888-88888888-10-10-10-55555555-88888888-10101010101010101010|
A|-33333333-88888888-66666666-8--8--8--33333333-88888888-8-8-8-8-8-8-8-8-8-8-|
D|----------88888888----------------------------88888888---------------------|

e|---------------------------------------------------------------------------|
B|---------------------------------------------------------------------------|
G|101010---------------------------------------------------------------------|
D|101010---------------------------------------------------------------------|
A|8-8-8----------------------------------------------------------------------|
D|---------------------------------------------------------------------------|

[Chorus]

e|---------------------------------------------------------------------------|
B|---------------------------------------------------------------------------|
G|-------8~---------------88888888----------10101010101010101010101010101010-|
D|-5~----8~----88----33---88888888-88888888-10101010101010101010101010101010-|
A|-5~----6~----88----33---66666666-88888888-8-8-8-8-8-8-8-8-8-8-8-8-8-8-8-8--|
D|-5~----------88----33------------88888888----------------------------------|

e|---------------------------------------------------------------------------|
B|---------------------------------------------------------------------------|
G|----------88888888-------------------88888888----------10101010101010101010|
D|-55555555-88888888-88888888-33333333-88888888-88888888-10101010101010101010|
A|-55555555-66666666-88888888-33333333-66666666-88888888-8-8-8-8-8-8-8-8-8-8-|
D|-55555555----------88888888-33333333----------88888888---------------------|

e|---------------------------------------------------------------------------|
B|---------------------------------------------------------------------------|
G|1010-----------------------------------------------------------------------|
D|1010-5555-3333-11111111-5555-3333-55555-11-33333333-55555-00-1~------------|
A|8-8--5555-3333-11111111-5555-3333-55555-11-33333333-55555-00-1~------------|
D|-----5555-3333-11111111-5555-3333-55555-11-33333333-55555-00-1~------------|
Tap to rate this tab
 
# A B C D E F G H I J K L M N O P Q R S T U V W X Y Z