Song name
# A B C D E F G H I J K L M N O P Q R S T U V W X Y Z

Hey Monday - Fall Into Me tab

Fall into me- Hey monday
by:silvaboklo


Intro

   B5        G#5
e--------------------------------------|
B--------------------------------------|
G--------------------------------------|
D--9---------6-------------------------|
A--7---------4-------------------------|
E--7---------4-------------------------|

Vesre
 B5    G#5    F#5     E
------------------------------------------------|
------------------------------------------------|
---------------------1--------------------------|
--9-----6-----4------2--------------------------|
--7-----4-----2------2--------------------------|
--7-----4-----2------0--------------------------|

   G#5       F#5     E
----------------------------------------------|
----------------------------------------------|
---------------------1------------------------|
-----6-------4-------2------------------------|
-----4-------2-------2------------------------|
-----4-------2-------0------------------------|


chorus

----------------------------------------------------|
----------------------------------------------------|
------------------------1---------------------------|
---9------6------4------2---------------------------|
---7------4------2------2---------------------------|
---7------4------2------0---------------------------|


bridge
   G#5       F#5     E
----------------------------------------------|
----------------------------------------------|
---------------------1------------------------|
-----6-------4-------2------------------------|
-----4-------2-------2------------------------|
-----4-------2-------0------------------------|

end!!! hope you like it :D
Tap to rate this tab
 
# A B C D E F G H I J K L M N O P Q R S T U V W X Y Z