Song name
# A B C D E F G H I J K L M N O P Q R S T U V W X Y Z

Hey Monday - I Dont Wanna Dance tab

-------------------------------------------------------------------------------
			  I DONíT WANNA DANCE - Hey Monday
-------------------------------------------------------------------------------

Enjoy!

Tuning: Standard

[Intro]

e|------------------------------------|
B|--5-5--5-5----3-3--3-3---5-5--------|
G|-4-4----4----2-2----2---2-2--2-0----|
D|------------------------------------|
A|------------------------------------|
E|------------------------------------|

e|-------------------------------------------|
B|-------------------------------------------|
G|----------44444444----------55555555-------|
D|-55555555-44444444-22222222-55555555-------|
A|-55555555-22222222-22222222-33333333-------|
E|-33333333----------00000000----------------|

[Verse 1]

e|--------------------------------------|
B|--------------------------------------|
G|----------77777777--------------------| x4
D|-22222222-77777777-7777777777777777---|
A|-22222222-55555555-7777777777777777---|
E|-00000000----------5555555555555555---|
PM ******** ******** **************** 

[Chorus]

e|-------------------------------------------|
B|-------------------------------------------|
G|----------44444444----------55555555-------| x2
D|-55555555-44444444-22222222-55555555-------|
A|-55555555-22222222-22222222-33333333-------|
E|-33333333----------00000000----------------|

e|-------------------------------------------|
B|-------------------------------------------|
G|----------55555555----------77777777-------|
D|-22222222-55555555-55555555-77777777-------|
A|-22222222-33333333-55555555-55555555-------|
E|-00000000----------33333333----------------|

e|-------------------------------|
B|-------------------------------|
G|----------44444444----------5\-| 
D|-55555555-44444444-22222222-5\-| 
A|-55555555-22222222-22222222-3\-|
E|-33333333----------00000000----|

e|-------------------------------------------|
B|-------------------------------------------|
G|----------44444444----------55555555-------| x2
D|-55555555-44444444-22222222-55555555-------|
A|-55555555-22222222-22222222-33333333-------|
E|-33333333----------00000000----------------|

[Pre-verse]

e|-------------------|
B|-------------------|
G|-------------------|
D|-2-2---7-7-7-7-----|
A|-2-2---7-7-7-7-----|
E|-0-0---5-5-5-5-----|

[Verse 2]

e|-------------------------------------------------|
B|-------------------------------------------------|
G|-------------7---7-------7-7---------------------| 
D|-2-2-X-2-X-2-7-X-7-X-X-X-7-7-X-7-X-7777-X-777----|
A|-2-2-X-2-X-2-5-X-5-X-X-X-5-5-X-7-X-7777-X-777----|
E|-0-0-X-0-X-0---X---X-X-X-----X-5-X-5555-X-555----|

e|------------------------------------------0-0----|
B|------------------------------------------4-4----|
G|-------------7---7-------7-7---------------------| 
D|-2-2-X-2-X-2-7-X-7-X-X-X-7-7-X-7-X-7777----------|
A|-2-2-X-2-X-2-5-X-5-X-X-X-5-5-X-7-X-7777----------|
E|-0-0-X-0-X-0---X---X-X-X-----X-5-X-5555----------|

e|-------------------------------------------------|
B|-------------------------------------------------|
G|-------------7---7-------7-7---------------------| x2
D|-2-2-X-2-X-2-7-X-7-X-X-X-7-7-X-7-X-7777-X-777----|
A|-2-2-X-2-X-2-5-X-5-X-X-X-5-5-X-7-X-7777-X-777----|
E|-0-0-X-0-X-0---X---X-X-X-----X-5-X-5555-X-555----|

[Chorus]

e|-------------------------------------------|
B|-------------------------------------------|
G|----------44444444----------55555555-------| x2
D|-55555555-44444444-22222222-55555555-------|
A|-55555555-22222222-22222222-33333333-------|
E|-33333333----------00000000----------------|

e|-------------------------------------------|
B|-------------------------------------------|
G|----------55555555----------77777777-------|
D|-22222222-55555555-55555555-77777777-------|
A|-22222222-33333333-55555555-55555555-------|
E|-00000000----------33333333----------------|

e|-------------------------------|
B|-------------------------------|
G|----------44444444----------5\-| 
D|-55555555-44444444-22222222-5\-| 
A|-55555555-22222222-22222222-3\-|
E|-33333333----------00000000----|

e|-------------------------------------------|
B|-------------------------------------------|
G|----------44444444----------55555555-------| x2
D|-55555555-44444444-22222222-55555555-------|
A|-55555555-22222222-22222222-33333333-------|
E|-33333333----------00000000----------------|

[Bridge]
e|----------------------------------------|
B|----------------------------------------|
G|----------55555555----------------------| 
D|-77777777-55555555-55555555-44444444----|
A|-77777777-33333333-55555555-55555555----|
E|-55555555----------33333333-22222222----|

e|-------------------------------------------------|-------------|
B|-------------------------------------------------|-------------|
G|----------55555555-------------------------------|-----7~------|
D|-77777777-55555555-22222222-55555555-4444444444--|-2~--7~--7~--|
A|-77777777-33333333-22222222-55555555-5555555555--|-2~--5~--7~--|
E|-55555555----------00000000-33333333-2222222222--|-0~------5~--|

[Chorus/Outro]

e|-------------------------------------------|
B|-------------------------------------------|
G|----------44444444----------55555555-------| x2
D|-55555555-44444444-22222222-55555555-------|
A|-55555555-22222222-22222222-33333333-------|
E|-33333333----------00000000----------------|

e|-------------------------------------------|
B|-------------------------------------------|
G|----------55555555----------77777777-------|
D|-22222222-55555555-55555555-77777777-------|
A|-22222222-33333333-55555555-55555555-------|
E|-00000000----------33333333----------------|

e|-------------------------------|
B|-------------------------------|
G|----------44444444----------5\-| 
D|-55555555-44444444-22222222-5\-| 
A|-55555555-22222222-22222222-3\-|
E|-33333333----------00000000----|

e|-------------------------------------------|
B|-------------------------------------------|
G|----------44444444----------55555555-------| x4
D|-55555555-44444444-22222222-55555555-------|
A|-55555555-22222222-22222222-33333333-------|
E|-33333333----------00000000----------------|

e|-------|
B|-------|
G|-------|
D|--5~~--|
A|--5~~--|
E|--3~~--|






Tap to rate this tab
# A B C D E F G H I J K L M N O P Q R S T U V W X Y Z