Hey Monday - I Dont Wanna Dance tab

I Don't Wanna Dance - Hey Monday

Super simple, haven't got the fills: they're simple to listen for...
only rhythm... but that's the fun bit =] enjoy

-  INTRO
e|---------------|
b|---------------|
g|----4---5------|
d|--5-4-2-5------|
a|--5-2-2-3------|
d|--5---2--------|

VERSE
e|-------------|
b|-------------|
g|-------------|
d|--2-0-7------|
a|--2-o-7------|
d|--2-0-7------|

CHORUS
e|-------------|
b|-------------|
g|----4---5----|
d|--5-4-2-5----|
a|--5-2-2-3----|
d|--5---2------|

e|------------|
b|------------|
g|---5--------|
d|-2-5-5-0----|
a|-2-3-5-0----|
d|-2---5-0----|

Bridge (maybe kinda?) (I lost intrest by this point)

e|------------|
b|------------|
g|---5--------|
d|-2-5-5-0----|
a|-2-3-5-0----|
d|-2---5-0----|
Tap to rate this tab
 
# A B C D E F G H I J K L M N O P Q R S T U V W X Y Z