Song name
# A B C D E F G H I J K L M N O P Q R S T U V W X Y Z

Hey Monday - Homecoming Acoustic tab

i guess this is not only acoustic but i picked it up from watching acoustic videos. this 
how cassadee plays it not mike so its the rythm guitar. tuning is drop d. watch this 
if you need help with strumming
http://www.youtube.com/watch?v=Cm8J55LMYnY

intro is palm muted

verse:

   homecoming    I'm coming  my sweet mistake
e|x-x--x-x-x-x--x-x--x-x-x-x--x-x--x-x-x-x--x-x--x-x-x-x-|
B|x-x--x-x-x-x--x-x--x-x-x-x--x-x--x-x-x-x--x-x--x-x-x-x-|
G|x-x--x-x-x-x--x-x--x-x-x-x--x-x--x-x-x-x--x-x--x-x-x-x-|
D|2-2--x-x-x-x--5-5--x-x-x-x--0-0--x-x-x-x--7-7--x-x-x-x-|
A|2-2--x-x-x-x--5-5--x-x-x-x--0-0--x-x-x-x--7-7--x-x-x-x-|
D|2-2--x-x-x-x--5-5--x-x-x-x--0-0--x-x-x-x--7-7--x-x-x-x-|


   summers over  hope its not too late
e|x-x--x-x-x-x--x-x--x-x-x-x--x-x--x-x-x-x--x-x--x-x-x-x-|
B|x-x--x-x-x-x--x-x--x-x-x-x--x-x--x-x-x-x--x-x--x-x-x-x-|
G|x-x--x-x-x-x--x-x--x-x-x-x--x-x--x-x-x-x--x-x--x-x-x-x-|
D|2-2--x-x-x-x--5-5--x-x-x-x--0-0--x-x-x-x--7-7--x-x-x-x-|
A|2-2--x-x-x-x--5-5--x-x-x-x--0-0--x-x-x-x--7-7--x-x-x-x-|
D|2-2--x-x-x-x--5-5--x-x-x-x--0-0--x-x-x-x--7-7--x-x-x-x-|

    I'm pacing     impatient    up in my head
e|x-x--x-x-x-x--x-x--x-x-x-x--x-x--x-x-x-x--x-x--x-x-x-x-|
B|x-x--x-x-x-x--x-x--x-x-x-x--x-x--x-x-x-x--x-x--x-x-x-x-|
G|x-x--x-x-x-x--x-x--x-x-x-x--x-x--x-x-x-x--x-x--x-x-x-x-|
D|2-2--x-x-x-x--5-5--x-x-x-x--0-0--x-x-x-x--7-7--x-x-x-x-|
A|2-2--x-x-x-x--5-5--x-x-x-x--0-0--x-x-x-x--7-7--x-x-x-x-|
D|2-2--x-x-x-x--5-5--x-x-x-x--0-0--x-x-x-x--7-7--x-x-x-x-|

  taken back to the sidewalk where we met
e|x-x--x-x-x-x--x-x--x-x-x-x--x-x--x-x-x-x--x-x--x-x-x-x-|
B|x-x--x-x-x-x--x-x--x-x-x-x--x-x--x-x-x-x--x-x--x-x-x-x-|
G|x-x--x-x-x-x--x-x--x-x-x-x--x-x--x-x-x-x--x-x--x-x-x-x-|
D|2-2--x-x-x-x--5-5--x-x-x-x--0-0--x-x-x-x--7-7--x-x-x-x-|
A|2-2--x-x-x-x--5-5--x-x-x-x--0-0--x-x-x-x--7-7--x-x-x-x-|
D|2-2--x-x-x-x--5-5--x-x-x-x--0-0--x-x-x-x--7-7--x-x-x-x-|

  carved out our names   Do you remember that
e|---------------x~-----------------------x~
B|---------------x~-----------------------x~
G|---------------x~-----------------------x~
D|---------------7~--------------------(10)~
A|---------------7~--------------------(10)~
D|---------------7~--------------------(10)~

Chorus:


Im coming home I'm coming home did you take off while i was gone
e|--------x-x-x-x-x-x-x-x--x-x-x-x-x-x-x-x--x-x-x-x-x-x-x-x--x-x-x-x-x-x-x-x-|
B|--------x-x-x-x-x-x-x-x--x-x-x-x-x-x-x-x--x-x-x-x-x-x-x-x--x-x-x-x-x-x-x-x-|
G|--------x-x-x-x-x-x-x-x--x-x-x-x-x-x-x-x--x-x-x-x-x-x-x-x--x-x-x-x-x-x-x-x-|
D|--------2-2-2-2-2-2-2-2--5-5-5-5-5-5-5-5--0-0-0-0-0-0-0-0--7-7-7-7-7-7-7-7-|
A|--------2-2-2-2-2-2-2-2--5-5-5-5-5-5-5-5--0-0-0-0-0-0-0-0--7-7-7-7-7-7-7-7-|
D|--------2-2-2-2-2-2-2-2--5-5-5-5-5-5-5-5--0-0-0-0-0-0-0-0--7-7-7-7-7-7-7-7-|

I missed it all I messed you up   I missed you
e|--------x-x-x-x-x-x-x-x--x-x-x-x-x-x-x-x--x-x-x-x-x-x-x-x--x-x-x-x-x-x-x-x-|
B|--------x-x-x-x-x-x-x-x--x-x-x-x-x-x-x-x--x-x-x-x-x-x-x-x--x-x-x-x-x-x-x-x-|
G|--------x-x-x-x-x-x-x-x--x-x-x-x-x-x-x-x--x-x-x-x-x-x-x-x--x-x-x-x-x-x-x-x-|
D|--------2-2-2-2-2-2-2-2--5-5-5-5-5-5-5-5--0-0-0-0-0-0-0-0--7-7-7-7-7-7-7-7-|
A|--------2-2-2-2-2-2-2-2--5-5-5-5-5-5-5-5--0-0-0-0-0-0-0-0--7-7-7-7-7-7-7-7-|
D|--------2-2-2-2-2-2-2-2--5-5-5-5-5-5-5-5--0-0-0-0-0-0-0-0--7-7-7-7-7-7-7-7-|

Im coming home     I wanna know when all the leaves begin to fall
e|--------x-x-x-x-x-x-x-x--x-x-x-x-x-x-x-x--x-x-x-x-x-x-x-x--x-x-x-x-x-x-x-x-|
B|--------x-x-x-x-x-x-x-x--x-x-x-x-x-x-x-x--x-x-x-x-x-x-x-x--x-x-x-x-x-x-x-x-|
G|--------x-x-x-x-x-x-x-x--x-x-x-x-x-x-x-x--x-x-x-x-x-x-x-x--x-x-x-x-x-x-x-x-|
D|--------2-2-2-2-2-2-2-2--5-5-5-5-5-5-5-5--0-0-0-0-0-0-0-0--7-7-7-7-7-7-7-7-|
A|--------2-2-2-2-2-2-2-2--5-5-5-5-5-5-5-5--0-0-0-0-0-0-0-0--7-7-7-7-7-7-7-7-|
D|--------2-2-2-2-2-2-2-2--5-5-5-5-5-5-5-5--0-0-0-0-0-0-0-0--7-7-7-7-7-7-7-7-|

If Im falling       falling      apart
e|----x-x--x-x-x-x--x-x--x-x-x-x--x-x--x-x-x-x--x-x--x-x-x-x-|
B|----x-x--x-x-x-x--x-x--x-x-x-x--x-x--x-x-x-x--x-x--x-x-x-x-|
G|----x-x--x-x-x-x--x-x--x-x-x-x--x-x--x-x-x-x--x-x--x-x-x-x-|
D|----2-2--x-x-x-x--5-5--x-x-x-x--0-0--x-x-x-x--7-7--x-x-x-x-|
A|----2-2--x-x-x-x--5-5--x-x-x-x--0-0--x-x-x-x--7-7--x-x-x-x-|
D|----2-2--x-x-x-x--5-5--x-x-x-x--0-0--x-x-x-x--7-7--x-x-x-x-|


  for you        (palm muted until next verse)
e|-----x~
B|-----x~
G|-----x~
D|--(12)~
A|--(12)~
D|--(12)~


Verse 2:

  Descending     I'm spinning   lost all defense
e|x-x--x-x-x-x--x-x--x-x-x-x--x-x--x-x-x-x--x-x--x-x-x-x-|
B|x-x--x-x-x-x--x-x--x-x-x-x--x-x--x-x-x-x--x-x--x-x-x-x-|
G|x-x--x-x-x-x--x-x--x-x-x-x--x-x--x-x-x-x--x-x--x-x-x-x-|
D|2-2--x-x-x-x--5-5--x-x-x-x--0-0--x-x-x-x--7-7--x-x-x-x-|
A|2-2--x-x-x-x--5-5--x-x-x-x--0-0--x-x-x-x--7-7--x-x-x-x-|
D|2-2--x-x-x-x--5-5--x-x-x-x--0-0--x-x-x-x--7-7--x-x-x-x-|


   How could you swallow me     again
e|x-x--x-x-x-x--x-x--x-x-x-x--x-x--x-x-x-x--x-x--x-x-x-x-|
B|x-x--x-x-x-x--x-x--x-x-x-x--x-x--x-x-x-x--x-x--x-x-x-x-|
G|x-x--x-x-x-x--x-x--x-x-x-x--x-x--x-x-x-x--x-x--x-x-x-x-|
D|2-2--x-x-x-x--5-5--x-x-x-x--0-0--x-x-x-x--7-7--x-x-x-x-|
A|2-2--x-x-x-x--5-5--x-x-x-x--0-0--x-x-x-x--7-7--x-x-x-x-|
D|2-2--x-x-x-x--5-5--x-x-x-x--0-0--x-x-x-x--7-7--x-x-x-x-|

    I left you   I meant to   couldn't let you in
e|x-x--x-x-x-x--x-x--x-x-x-x--x-x--x-x-x-x--x-x--x-x-x-x-|
B|x-x--x-x-x-x--x-x--x-x-x-x--x-x--x-x-x-x--x-x--x-x-x-x-|
G|x-x--x-x-x-x--x-x--x-x-x-x--x-x--x-x-x-x--x-x--x-x-x-x-|
D|2-2--x-x-x-x--5-5--x-x-x-x--0-0--x-x-x-x--7-7--x-x-x-x-|
A|2-2--x-x-x-x--5-5--x-x-x-x--0-0--x-x-x-x--7-7--x-x-x-x-|
D|2-2--x-x-x-x--5-5--x-x-x-x--0-0--x-x-x-x--7-7--x-x-x-x-|

  Never mind a single word i said
e|x-x--x-x-x-x--x-x--x-x-x-x--x-x--x-x-x-x--x-x--x-x-x-x-|
B|x-x--x-x-x-x--x-x--x-x-x-x--x-x--x-x-x-x--x-x--x-x-x-x-|
G|x-x--x-x-x-x--x-x--x-x-x-x--x-x--x-x-x-x--x-x--x-x-x-x-|
D|2-2--x-x-x-x--5-5--x-x-x-x--0-0--x-x-x-x--7-7--x-x-x-x-|
A|2-2--x-x-x-x--5-5--x-x-x-x--0-0--x-x-x-x--7-7--x-x-x-x-|
D|2-2--x-x-x-x--5-5--x-x-x-x--0-0--x-x-x-x--7-7--x-x-x-x-|

  carve out your name   Do you remember that
e|---------------x~-----------------------x~
B|---------------x~-----------------------x~
G|---------------x~-----------------------x~
D|---------------7~--------------------(10)~
A|---------------7~--------------------(10)~
D|---------------7~--------------------(10)~

Chorus:


Im coming home I'm coming home did you take off while i was gone
e|--------x-x-x-x-x-x-x-x--x-x-x-x-x-x-x-x--x-x-x-x-x-x-x-x--x-x-x-x-x-x-x-x-|
B|--------x-x-x-x-x-x-x-x--x-x-x-x-x-x-x-x--x-x-x-x-x-x-x-x--x-x-x-x-x-x-x-x-|
G|--------x-x-x-x-x-x-x-x--x-x-x-x-x-x-x-x--x-x-x-x-x-x-x-x--x-x-x-x-x-x-x-x-|
D|--------2-2-2-2-2-2-2-2--5-5-5-5-5-5-5-5--0-0-0-0-0-0-0-0--7-7-7-7-7-7-7-7-|
A|--------2-2-2-2-2-2-2-2--5-5-5-5-5-5-5-5--0-0-0-0-0-0-0-0--7-7-7-7-7-7-7-7-|
D|--------2-2-2-2-2-2-2-2--5-5-5-5-5-5-5-5--0-0-0-0-0-0-0-0--7-7-7-7-7-7-7-7-|

I missed it all I messed you up   I missed you
e|--------x-x-x-x-x-x-x-x--x-x-x-x-x-x-x-x--x-x-x-x-x-x-x-x--x-x-x-x-x-x-x-x-|
B|--------x-x-x-x-x-x-x-x--x-x-x-x-x-x-x-x--x-x-x-x-x-x-x-x--x-x-x-x-x-x-x-x-|
G|--------x-x-x-x-x-x-x-x--x-x-x-x-x-x-x-x--x-x-x-x-x-x-x-x--x-x-x-x-x-x-x-x-|
D|--------2-2-2-2-2-2-2-2--5-5-5-5-5-5-5-5--0-0-0-0-0-0-0-0--7-7-7-7-7-7-7-7-|
A|--------2-2-2-2-2-2-2-2--5-5-5-5-5-5-5-5--0-0-0-0-0-0-0-0--7-7-7-7-7-7-7-7-|
D|--------2-2-2-2-2-2-2-2--5-5-5-5-5-5-5-5--0-0-0-0-0-0-0-0--7-7-7-7-7-7-7-7-|

Im coming home     I wanna know when all the leaves begin to fall
e|--------x-x-x-x-x-x-x-x--x-x-x-x-x-x-x-x--x-x-x-x-x-x-x-x--x-x-x-x-x-x-x-x-|
B|--------x-x-x-x-x-x-x-x--x-x-x-x-x-x-x-x--x-x-x-x-x-x-x-x--x-x-x-x-x-x-x-x-|
G|--------x-x-x-x-x-x-x-x--x-x-x-x-x-x-x-x--x-x-x-x-x-x-x-x--x-x-x-x-x-x-x-x-|
D|--------2-2-2-2-2-2-2-2--5-5-5-5-5-5-5-5--0-0-0-0-0-0-0-0--7-7-7-7-7-7-7-7-|
A|--------2-2-2-2-2-2-2-2--5-5-5-5-5-5-5-5--0-0-0-0-0-0-0-0--7-7-7-7-7-7-7-7-|
D|--------2-2-2-2-2-2-2-2--5-5-5-5-5-5-5-5--0-0-0-0-0-0-0-0--7-7-7-7-7-7-7-7-|

If Im falling       falling      apart
e|----x-x--x-x-x-x--x-x--x-x-x-x--x-x--x-x-x-x--x-x--x-x-x-x-|
B|----x-x--x-x-x-x--x-x--x-x-x-x--x-x--x-x-x-x--x-x--x-x-x-x-|
G|----x-x--x-x-x-x--x-x--x-x-x-x--x-x--x-x-x-x--x-x--x-x-x-x-|
D|----2-2--x-x-x-x--5-5--x-x-x-x--0-0--x-x-x-x--7-7--x-x-x-x-|
A|----2-2--x-x-x-x--5-5--x-x-x-x--0-0--x-x-x-x--7-7--x-x-x-x-|
D|----2-2--x-x-x-x--5-5--x-x-x-x--0-0--x-x-x-x--7-7--x-x-x-x-|


  for you        (keep playing on 12 until bridge)
e|-----x~
B|-----x~
G|-----x~
D|--(12)~
A|--(12)~
D|--(12)~


Bridge:

You've got
control of me is this the end of me cause i just can't cut up the strings
e|x-x-x-x-x-x-x-x-x-x-x--x-x-x-x-x-x-x-x-x-x-x-x-x-x-x-x-x-x-x-x-x-x-x-x-x-|
B|x-x-x-x-x-x-x-x-x-x-x--x-x-x-x-x-x-x-x-x-x-x-x-x-x-x-x-x-x-x-x-x-x-x-x-x-|
G|x-x-x-x-x-x-x-x-x-x-x--x-x-x-x-x-x-x-x-x-x-x-x-x-x-x-x-x-x-x-x-x-x-x-x-x-|
D|3-3-3-3-3-3-3-3-3-3-3--5-5-5-5-5-5-5-5-5-5-5-5-5-5-5-5-5-5-5-5-5-5-5-5-5-|
A|3-3-3-3-3-3-3-3-3-3-3--5-5-5-5-5-5-5-5-5-5-5-5-5-5-5-5-5-5-5-5-5-5-5-5-5-|
D|3-3-3-3-3-3-3-3-3-3-3--5-5-5-5-5-5-5-5-5-5-5-5-5-5-5-5-5-5-5-5-5-5-5-5-5-|


I'm coming
  back for more dont let your heart go please don't walk
e|x-x-x-x-x-x-x-x-x-x-x-x-x--x-x-x-x-x-x-x-x-x-x-x-x-x-x-x-|
B|x-x-x-x-x-x-x-x-x-x-x-x-x--x-x-x-x-x-x-x-x-x-x-x-x-x-x-x-|
G|x-x-x-x-x-x-x-x-x-x-x-x-x--x-x-x-x-x-x-x-x-x-x-x-x-x-x-x-|
D|3-3-3-3-3-3-3-3-3-3-3-3-3--5-5-5-5-5-5-5-5-5-5-5-5-5-5-5-|
A|3-3-3-3-3-3-3-3-3-3-3-3-3--5-5-5-5-5-5-5-5-5-5-5-5-5-5-5-|
D|3-3-3-3-3-3-3-3-3-3-3-3-3--5-5-5-5-5-5-5-5-5-5-5-5-5-5-5-|

 away                  (on these you dont have to slide you can just play)
e|x-x--x-x-x-x--x-x--x-x/x-x-x-x/x-x-x-x-|
B|x-x--x-x-x-x--x-x--x-x/x-x-x-x/x-x-x-x-|
G|x-x--x-x-x-x--x-x--x-x/x-x-x-x/x-x-x-x-|
D|2-2--x-x-x-x--2-2--x-x/3-3-3-3/5-5-5-5-|
A|2-2--x-x-x-x--2-2--x-x/3-3-3-3/5-5-5-5-|
D|2-2--x-x-x-x--2-2--x-x/3-3-3-3/5-5-5-5-|


e|x-x--x-x-x-x--x-x--x-x/x-x-x-x/x-x-x-x-|
B|x-x--x-x-x-x--x-x--x-x/x-x-x-x/x-x-x-x-|
G|x-x--x-x-x-x--x-x--x-x/x-x-x-x/x-x-x-x-|
D|2-2--x-x-x-x--2-2--x-x/3-3-3-3/5-5-5-5-|
A|2-2--x-x-x-x--2-2--x-x/3-3-3-3/5-5-5-5-|
D|2-2--x-x-x-x--2-2--x-x/3-3-3-3/5-5-5-5-|

Chorus 3:


homecoming im coming im coming back
e|x~~~~~~~~~~x~~~~~~~~~x~~~~~~~x~
B|x~~~~~~~~~~x~~~~~~~~~x~~~~~~~x~
G|x~~~~~~~~~~x~~~~~~~~~x~~~~~~~x~
D|2~~~~~~~~~~5~~~~~~~~~0~~~~~~~7~
A|2~~~~~~~~~~5~~~~~~~~~0~~~~~~~7~
D|2~~~~~~~~~~5~~~~~~~~~0~~~~~~~7~


Im coming home I'm coming home did you take off while i was gone
e|--------x-x-x-x-x-x-x-x--x-x-x-x-x-x-x-x--x-x-x-x-x-x-x-x--x-x-x-x-x-x-x-x-|
B|--------x-x-x-x-x-x-x-x--x-x-x-x-x-x-x-x--x-x-x-x-x-x-x-x--x-x-x-x-x-x-x-x-|
G|--------x-x-x-x-x-x-x-x--x-x-x-x-x-x-x-x--x-x-x-x-x-x-x-x--x-x-x-x-x-x-x-x-|
D|--------2-2-2-2-2-2-2-2--5-5-5-5-5-5-5-5--0-0-0-0-0-0-0-0--7-7-7-7-7-7-7-7-|
A|--------2-2-2-2-2-2-2-2--5-5-5-5-5-5-5-5--0-0-0-0-0-0-0-0--7-7-7-7-7-7-7-7-|
D|--------2-2-2-2-2-2-2-2--5-5-5-5-5-5-5-5--0-0-0-0-0-0-0-0--7-7-7-7-7-7-7-7-|

I missed it all I messed you up   I missed you
e|--------x-x-x-x-x-x-x-x--x-x-x-x-x-x-x-x--x-x-x-x-x-x-x-x--x-x-x-x-x-x-x-x-|
B|--------x-x-x-x-x-x-x-x--x-x-x-x-x-x-x-x--x-x-x-x-x-x-x-x--x-x-x-x-x-x-x-x-|
G|--------x-x-x-x-x-x-x-x--x-x-x-x-x-x-x-x--x-x-x-x-x-x-x-x--x-x-x-x-x-x-x-x-|
D|--------2-2-2-2-2-2-2-2--5-5-5-5-5-5-5-5--0-0-0-0-0-0-0-0--7-7-7-7-7-7-7-7-|
A|--------2-2-2-2-2-2-2-2--5-5-5-5-5-5-5-5--0-0-0-0-0-0-0-0--7-7-7-7-7-7-7-7-|
D|--------2-2-2-2-2-2-2-2--5-5-5-5-5-5-5-5--0-0-0-0-0-0-0-0--7-7-7-7-7-7-7-7-|

Im coming home     I wanna know when all the leaves begin to fall
e|--------x-x-x-x-x-x-x-x--x-x-x-x-x-x-x-x--x-x-x-x-x-x-x-x--x-x-x-x-x-x-x-x-|
B|--------x-x-x-x-x-x-x-x--x-x-x-x-x-x-x-x--x-x-x-x-x-x-x-x--x-x-x-x-x-x-x-x-|
G|--------x-x-x-x-x-x-x-x--x-x-x-x-x-x-x-x--x-x-x-x-x-x-x-x--x-x-x-x-x-x-x-x-|
D|--------2-2-2-2-2-2-2-2--5-5-5-5-5-5-5-5--0-0-0-0-0-0-0-0--7-7-7-7-7-7-7-7-|
A|--------2-2-2-2-2-2-2-2--5-5-5-5-5-5-5-5--0-0-0-0-0-0-0-0--7-7-7-7-7-7-7-7-|
D|--------2-2-2-2-2-2-2-2--5-5-5-5-5-5-5-5--0-0-0-0-0-0-0-0--7-7-7-7-7-7-7-7-|

If Im falling       falling      apart
e|----x-x--x-x-x-x--x-x--x-x-x-x--x-x--x-x-x-x--x-x--x-x-x-x-|
B|----x-x--x-x-x-x--x-x--x-x-x-x--x-x--x-x-x-x--x-x--x-x-x-x-|
G|----x-x--x-x-x-x--x-x--x-x-x-x--x-x--x-x-x-x--x-x--x-x-x-x-|
D|----2-2--x-x-x-x--5-5--x-x-x-x--0-0--x-x-x-x--7-7--x-x-x-x-|
A|----2-2--x-x-x-x--5-5--x-x-x-x--0-0--x-x-x-x--7-7--x-x-x-x-|
D|----2-2--x-x-x-x--5-5--x-x-x-x--0-0--x-x-x-x--7-7--x-x-x-x-|


 Im coming home I'm coming home did you take off while i was gone
e|--------x-x-x-x-x-x-x-x--x-x-x-x-x-x-x-x--x-x-x-x-x-x-x-x--x-x-x-x-x-x-x-x-|
B|--------x-x-x-x-x-x-x-x--x-x-x-x-x-x-x-x--x-x-x-x-x-x-x-x--x-x-x-x-x-x-x-x-|
G|--------x-x-x-x-x-x-x-x--x-x-x-x-x-x-x-x--x-x-x-x-x-x-x-x--x-x-x-x-x-x-x-x-|
D|--------2-2-2-2-2-2-2-2--5-5-5-5-5-5-5-5--0-0-0-0-0-0-0-0--7-7-7-7-7-7-7-7-|
A|--------2-2-2-2-2-2-2-2--5-5-5-5-5-5-5-5--0-0-0-0-0-0-0-0--7-7-7-7-7-7-7-7-|
D|--------2-2-2-2-2-2-2-2--5-5-5-5-5-5-5-5--0-0-0-0-0-0-0-0--7-7-7-7-7-7-7-7-|

I missed it all I messed you up   I missed you
e|--------x-x-x-x-x-x-x-x--x-x-x-x-x-x-x-x--x-x-x-x-x-x-x-x--x-x-x-x-x-x-x-x-|
B|--------x-x-x-x-x-x-x-x--x-x-x-x-x-x-x-x--x-x-x-x-x-x-x-x--x-x-x-x-x-x-x-x-|
G|--------x-x-x-x-x-x-x-x--x-x-x-x-x-x-x-x--x-x-x-x-x-x-x-x--x-x-x-x-x-x-x-x-|
D|--------2-2-2-2-2-2-2-2--5-5-5-5-5-5-5-5--0-0-0-0-0-0-0-0--7-7-7-7-7-7-7-7-|
A|--------2-2-2-2-2-2-2-2--5-5-5-5-5-5-5-5--0-0-0-0-0-0-0-0--7-7-7-7-7-7-7-7-|
D|--------2-2-2-2-2-2-2-2--5-5-5-5-5-5-5-5--0-0-0-0-0-0-0-0--7-7-7-7-7-7-7-7-|

Im coming home     I wanna know when all the leaves begin to fall
e|--------x-x-x-x-x-x-x-x--x-x-x-x-x-x-x-x--x-x-x-x-x-x-x-x--x-x-x-x-x-x-x-x-|
B|--------x-x-x-x-x-x-x-x--x-x-x-x-x-x-x-x--x-x-x-x-x-x-x-x--x-x-x-x-x-x-x-x-|
G|--------x-x-x-x-x-x-x-x--x-x-x-x-x-x-x-x--x-x-x-x-x-x-x-x--x-x-x-x-x-x-x-x-|
D|--------2-2-2-2-2-2-2-2--5-5-5-5-5-5-5-5--0-0-0-0-0-0-0-0--7-7-7-7-7-7-7-7-|
A|--------2-2-2-2-2-2-2-2--5-5-5-5-5-5-5-5--0-0-0-0-0-0-0-0--7-7-7-7-7-7-7-7-|
D|--------2-2-2-2-2-2-2-2--5-5-5-5-5-5-5-5--0-0-0-0-0-0-0-0--7-7-7-7-7-7-7-7-|

If Im falling       falling      apart
e|----x-x--x-x-x-x--x-x--x-x-x-x--x-x--x-x-x-x--x-x--x-x-x-x-|
B|----x-x--x-x-x-x--x-x--x-x-x-x--x-x--x-x-x-x--x-x--x-x-x-x-|
G|----x-x--x-x-x-x--x-x--x-x-x-x--x-x--x-x-x-x--x-x--x-x-x-x-|
D|----2-2--x-x-x-x--5-5--x-x-x-x--0-0--x-x-x-x--7-7--x-x-x-x-|
A|----2-2--x-x-x-x--5-5--x-x-x-x--0-0--x-x-x-x--7-7--x-x-x-x-|
D|----2-2--x-x-x-x--5-5--x-x-x-x--0-0--x-x-x-x--7-7--x-x-x-x-|


Im coming home I'm coming home did you take off while i was gone
e|--------x-x-x-x-x-x-x-x--x-x-x-x-x-x-x-x--x-x-x-x-x-x-x-x--x-x-x-x-x-x-x-x-|
B|--------x-x-x-x-x-x-x-x--x-x-x-x-x-x-x-x--x-x-x-x-x-x-x-x--x-x-x-x-x-x-x-x-|
G|--------x-x-x-x-x-x-x-x--x-x-x-x-x-x-x-x--x-x-x-x-x-x-x-x--x-x-x-x-x-x-x-x-|
D|--------2-2-2-2-2-2-2-2--5-5-5-5-5-5-5-5--0-0-0-0-0-0-0-0--7-7-7-7-7-7-7-7-|
A|--------2-2-2-2-2-2-2-2--5-5-5-5-5-5-5-5--0-0-0-0-0-0-0-0--7-7-7-7-7-7-7-7-|
D|--------2-2-2-2-2-2-2-2--5-5-5-5-5-5-5-5--0-0-0-0-0-0-0-0--7-7-7-7-7-7-7-7-|

I missed it all I messed you up   I missed you
e|--------x-x-x-x-x-x-x-x--x-x-x-x-x-x-x-x--x-x-x-x-x-x-x-x--x-x-x-x-x-x-x-x-|
B|--------x-x-x-x-x-x-x-x--x-x-x-x-x-x-x-x--x-x-x-x-x-x-x-x--x-x-x-x-x-x-x-x-|
G|--------x-x-x-x-x-x-x-x--x-x-x-x-x-x-x-x--x-x-x-x-x-x-x-x--x-x-x-x-x-x-x-x-|
D|--------2-2-2-2-2-2-2-2--5-5-5-5-5-5-5-5--0-0-0-0-0-0-0-0--7-7-7-7-7-7-7-7-|
A|--------2-2-2-2-2-2-2-2--5-5-5-5-5-5-5-5--0-0-0-0-0-0-0-0--7-7-7-7-7-7-7-7-|
D|--------2-2-2-2-2-2-2-2--5-5-5-5-5-5-5-5--0-0-0-0-0-0-0-0--7-7-7-7-7-7-7-7-|

Im coming home     I wanna know when all the leaves begin to fall
e|--------x-x-x-x-x-x-x-x--x-x-x-x-x-x-x-x--x-x-x-x-x-x-x-x--x-x-x-x-x-x-x-x-|
B|--------x-x-x-x-x-x-x-x--x-x-x-x-x-x-x-x--x-x-x-x-x-x-x-x--x-x-x-x-x-x-x-x-|
G|--------x-x-x-x-x-x-x-x--x-x-x-x-x-x-x-x--x-x-x-x-x-x-x-x--x-x-x-x-x-x-x-x-|
D|--------2-2-2-2-2-2-2-2--5-5-5-5-5-5-5-5--0-0-0-0-0-0-0-0--7-7-7-7-7-7-7-7-|
A|--------2-2-2-2-2-2-2-2--5-5-5-5-5-5-5-5--0-0-0-0-0-0-0-0--7-7-7-7-7-7-7-7-|
D|--------2-2-2-2-2-2-2-2--5-5-5-5-5-5-5-5--0-0-0-0-0-0-0-0--7-7-7-7-7-7-7-7-|

If Im falling       falling      apart
e|----x-x--x-x-x-x--x-x--x-x-x-x--x-x--x-x-x-x--x-x--x-x-x-x-|
B|----x-x--x-x-x-x--x-x--x-x-x-x--x-x--x-x-x-x--x-x--x-x-x-x-|
G|----x-x--x-x-x-x--x-x--x-x-x-x--x-x--x-x-x-x--x-x--x-x-x-x-|
D|----2-2--x-x-x-x--5-5--x-x-x-x--0-0--x-x-x-x--7-7--x-x-x-x-|
A|----2-2--x-x-x-x--5-5--x-x-x-x--0-0--x-x-x-x--7-7--x-x-x-x-|
D|----2-2--x-x-x-x--5-5--x-x-x-x--0-0--x-x-x-x--7-7--x-x-x-x-|


  Im coming home I'm coming home did you take off while i was gone
e|--------x-x-x-x-x-x-x-x--x-x-x-x-x-x-x-x--x-x-x-x-x-x-x-x--x-x-x-x-x-x-x-x-|
B|--------x-x-x-x-x-x-x-x--x-x-x-x-x-x-x-x--x-x-x-x-x-x-x-x--x-x-x-x-x-x-x-x-|
G|--------x-x-x-x-x-x-x-x--x-x-x-x-x-x-x-x--x-x-x-x-x-x-x-x--x-x-x-x-x-x-x-x-|
D|--------2-2-2-2-2-2-2-2--5-5-5-5-5-5-5-5--0-0-0-0-0-0-0-0--7-7-7-7-7-7-7-7-|
A|--------2-2-2-2-2-2-2-2--5-5-5-5-5-5-5-5--0-0-0-0-0-0-0-0--7-7-7-7-7-7-7-7-|
D|--------2-2-2-2-2-2-2-2--5-5-5-5-5-5-5-5--0-0-0-0-0-0-0-0--7-7-7-7-7-7-7-7-|

I missed it all I messed you up   I missed you
e|--------x-x-x-x-x-x-x-x--x-x-x-x-x-x-x-x--x-x-x-x-x-x-x-x--x-x-x-x-x-x-x-x-|
B|--------x-x-x-x-x-x-x-x--x-x-x-x-x-x-x-x--x-x-x-x-x-x-x-x--x-x-x-x-x-x-x-x-|
G|--------x-x-x-x-x-x-x-x--x-x-x-x-x-x-x-x--x-x-x-x-x-x-x-x--x-x-x-x-x-x-x-x-|
D|--------2-2-2-2-2-2-2-2--5-5-5-5-5-5-5-5--0-0-0-0-0-0-0-0--7-7-7-7-7-7-7-7-|
A|--------2-2-2-2-2-2-2-2--5-5-5-5-5-5-5-5--0-0-0-0-0-0-0-0--7-7-7-7-7-7-7-7-|
D|--------2-2-2-2-2-2-2-2--5-5-5-5-5-5-5-5--0-0-0-0-0-0-0-0--7-7-7-7-7-7-7-7-|

Im coming home     I wanna know when all the leaves begin to fall
e|--------x-x-x-x-x-x-x-x--x-x-x-x-x-x-x-x--x-x-x-x-x-x-x-x--x-x-x-x-x-x-x-x-|
B|--------x-x-x-x-x-x-x-x--x-x-x-x-x-x-x-x--x-x-x-x-x-x-x-x--x-x-x-x-x-x-x-x-|
G|--------x-x-x-x-x-x-x-x--x-x-x-x-x-x-x-x--x-x-x-x-x-x-x-x--x-x-x-x-x-x-x-x-|
D|--------2-2-2-2-2-2-2-2--5-5-5-5-5-5-5-5--0-0-0-0-0-0-0-0--7-7-7-7-7-7-7-7-|
A|--------2-2-2-2-2-2-2-2--5-5-5-5-5-5-5-5--0-0-0-0-0-0-0-0--7-7-7-7-7-7-7-7-|
D|--------2-2-2-2-2-2-2-2--5-5-5-5-5-5-5-5--0-0-0-0-0-0-0-0--7-7-7-7-7-7-7-7-|

If Im falling       falling      apart
e|----x-x--x-x-x-x--x-x--x-x-x-x--x-x--x-x-x-x--x-x--x-x-x-x-|
B|----x-x--x-x-x-x--x-x--x-x-x-x--x-x--x-x-x-x--x-x--x-x-x-x-|
G|----x-x--x-x-x-x--x-x--x-x-x-x--x-x--x-x-x-x--x-x--x-x-x-x-|
D|----2-2--x-x-x-x--5-5--x-x-x-x--0-0--x-x-x-x--7-7--x-x-x-x-|
A|----2-2--x-x-x-x--5-5--x-x-x-x--0-0--x-x-x-x--7-7--x-x-x-x-|
D|----2-2--x-x-x-x--5-5--x-x-x-x--0-0--x-x-x-x--7-7--x-x-x-x-|


for you
e|x~
B|x~
G|x~
D|2~
A|2~
D|2~

i tried my best to match the lyrics and get all the strumming correct :)
enjoy :D
Tap to rate this tab
# A B C D E F G H I J K L M N O P Q R S T U V W X Y Z