Hey Monday - Wondergirl tab

This is my first tab and ill try my best to make it accurate. 
I couldnt get mike's intro but i got this one instead
It's rhythm guitar.

E|----------|
B|----------|
G|----------|    x2
D|-2~-6~-7~-|  
A|-2~-6~-7~-|
D|-2~-6~-7~-|

E|--------------------------|
B|--------------------------|
G|-4-4-44-------7-7-77------|   x2
D|-4-4-44-5555--7-7-77-7777-|
A|-2-2-22-5555--5-5-55-7777-|
D|--------5555---------7777-|
      A A
E|----0-0----|
B|----2-2----|
G|----2-2----|
D|-55-2-2-22-| ONE TIME ONLY
A|-55-0-0-22-|
D|-55-x=x-22-|


E|--------------------------|
B|--------------------------|
G|-4-4-44-------7-7-77------|   x3
D|-4-4-44-5555--7-7-77-7777-|
A|-2-2-22-5555--5-5-55-7777-|
D|--------5555---------7777-|


E|--------------------|
B|--------------------|
G|-4-4-------7-7--7-7-|
D|-4-4--5-5--7-7--7-7-|
A|-2-2--5-5--5-5--5-5-|
D|------5-5-----------|


E|----------|
B|----------|
G|----------|    x2
D|-2~-6~-7~-|  
A|-2~-6~-7~-|
D|-2~-6~-7~-|


E|--------------------------|
B|--------------------------|
G|-4-4-44-------7-7-77------|   x2
D|-4-4-44-5555--7-7-77-7777-|
A|-2-2-22-5555--5-5-55-7777-|
D|--------5555---------7777-|

        D D  A A
E|------2-2--0-0------|
B|------3-3--2-2------|
G|------2-2--2-2------| x1
D|-5-5--0-0--2-2--2-2-|
A|-5-5--x-x--0-0--2-2-|
D|-5-5--x-x--x-x--2-2-|


E|--------------------------|
B|--------------------------|
G|-4-4-44-------7-7-77------|   x1
D|-4-4-44-5555--7-7-77-7777-|
A|-2-2-22-5555--5-5-55-7777-|
D|--------5555---------7777-|

  
E|--------------------------------|---------------------------------------|
B|--------------------------------|---------------------------------------|
G|----------------------7---------|----------------------7----------------|
D|-2-2-2-2-2/4-4/5-5----7-x8-7-x8-|-2-2-2-2-2/4-4/5-5----7-x2-7-----------|
A|-2-2-2-2-2/4-4/5-5-x8-5----4----|-2-2-2-2-2/4-4/5-5-x8-5----7-x10 or 12-|
D|-2-2-2-2-2/4-4/5-5--------------|-2-2-2-2-2/4-4/5-5---------7-----------|


E|-------------------|
B|-------------------|
G|-4-4-------7-7-----|
D|-4-4--5-5--7-7-7-7-|
A|-2-2--5-5--5-5-7-7-|
D|------5-5------7-7-|



E|--------------------------|
B|--------------------------|
G|-4-4-44-------7-7-77------|   x3
D|-4-4-44-5555--7-7-77-7777-|
A|-2-2-22-5555--5-5-55-7777-|
D|--------5555---------7777-|


        D D  A A
E|------2-2--0-0------|
B|------3-3--2-2------|
G|------2-2--2-2------| x1
D|-5-5--0-0--2-2--2-2-|
A|-5-5--x-x--0-0--2-2-|
D|-5-5--x-x--x-x--2-2-|


E|--------------------------|
B|--------------------------|
G|-4-4-44-------7-7-77------|   x3
D|-4-4-44-5555--7-7-77-7777-|
A|-2-2-22-5555--5-5-55-7777-|
D|--------5555---------7777-|


E|--------------------------|
B|--------------------------|
G|-4-4-44------7---------4~-|
D|-4-4-44-5555-7-x2-7----4~-|
A|-2-2-22-5555-5----7-x2-2~-|
D|--------5555------7-------|


Enjoy!
Tap to rate this tab
 
# A B C D E F G H I J K L M N O P Q R S T U V W X Y Z