Guitaretab - guitar tabs
Song name
# A B C D E F G H I J K L M N O P Q R S T U V W X Y Z

Hey Monday - Candles Acoustic tab

Candles PureVolume Acoustic Session
By Hey Monday

This is for my soulmate
always and forever 

Intro (all this X1)
-3-----3-------5------3----------------------------------|
----3------3-------3-------3-----------------------------|
-0-----0-------0------0----------------------------------|
---------------------------------------------------------|
---------------------------------------------------------|
---------------------------------------------------------|

-3-----3-------5------3----------------------------------|
----3------3-------3-------3-----------------------------|
---------------------------------------------------------|
-4-----4-------4------4----------------------------------|
---------------------------------------------------------|
---------------------------------------------------------|

-3-----3-------5------3-------3--------------------------|
----3------3-------3----------3--------------------------|
------------------------------0--------------------------|X1
-2-----2-------2------2---0---0--------------------------|
------------------------------3--------------------------|
---------------------------------------------------------|
Verse (all this X3) "The power lines went out..."
-3--33-3-33-33-333---------------------------------------|
-3--33-3-33-33-333---------------------------------------|
-0--00-0-00-00-000---------------------------------------|X3
-0--00-0-00-00-000-5-55-5-55-555-------------------------| 
-3--33-3-33-33-333-5-55-5-55-555-------------------------|
-------------------5-55-5-55-555-------------------------|

(all this X3) "Only darkness still remains..."
-3--33-3-33-33-33-3-3--33-3-33-33-333-333----------------|
-3--33-3-33-33-33-3-3--33-3-33-33-333-333----------------|
-0--00-0-00-00-00-0-0--00-0-00-00-000-000----------------|
-0--00-0-00-00-00-0-2--22-2-22-22-222-200----------------|X3
-3--33-3-33-33-32-2--------------------22----------------|
---------------------------------------------------------|

(all this X1) End of Verse "When it was you and me..."
-3--33-3-33-33-33-333333---------------------------------|
-3--33-3-33-33-33-333333---------------------------------|
-0--00-0-02-22-22-222222---------------------------------|X1
-0--00-0-00-00-00-000000---------------------------------|
-3--33-3-3-----------------------------------------------|
---------------------------------------------------------|


Chorus X2 (all this X2) "Blow the candles out..."
-----2---5---2-------2---5---5-7-3-----------------------|
---2---2---2---2---2---2---2-----------------------------|
-0---------------0---------------------------------------|
---------------------------------------------------------|
---------------------------------------------------------|
---------------------------------------------------------|

-----2---5---2------------2-------3-5-3------------------|
---2---2---2---2---2----2---2---2------------------------|
-0---------------0---------------------------------------|X2
------------------------------0--------------------------|
----------------------3----------------------------------|
---------------------------------------------------------|
[ Tab from: http://www.guitaretab.com/h/hey-monday/251467.html ]
Verse (all this X4) "Black and blue before..."
-3--33-3-33-33-333---------------------------------------|
-3--33-3-33-33-333---------------------------------------|
-0--00-0-00-00-000---------------------------------------|X4
-0--00-0-00-00-000-5-55-5-55-555-------------------------| 
-3--33-3-33-33-333-5-55-5-55-555-------------------------|
-------------------5-55-5-55-555-------------------------|

(all this X2) "Erase the memory of your face..."
-3--33-3-33-33-33-3-3--33-3-33-33-333-333----------------|
-3--33-3-33-33-33-3-3--33-3-33-33-333-333----------------|
-0--00-0-00-00-00-0-0--00-0-00-00-000-000----------------|
-0--00-0-00-00-00-0-2--22-2-22-22-222-200----------------|X2
-3--33-3-33-33-32-2--------------------22----------------|
---------------------------------------------------------|

(all this X1) "When it was you and me..."
-3--33-3-3-333-33-333333---------------------------------|
-3--33-3-3-333-33-333333---------------------------------|
-0--00-0-0-222-22-222222---------------------------------|
-0--00-0-0-000-00-000000---------------------------------|X1
-3--33-3-3-----------------------------------------------|
---------------------------------------------------------|

Chorus all this X2 "Blow the candles out..."
------------------3333333333333333-----------------------|
------------------3333333333333333-----------------------|
------------------2222222222222222-----------------------|
-3333333333333333-0000000000000000-----------------------|
-3333333333333333----------------------------------------|
-3333333333333333----------------------------------------|

-3333333333333333-33333333-33333333----------------------|
-3333333333333333-33333333-33333333----------------------|
-0000000000000000-00000000-22222222----------------------|X2
-0000000000000000-33333333-00000000----------------------|
-0000000000000000----------------------------------------|
-3333333333333333----------------------------------------|

(all this X3) "One day you'll wake up..."
-3-3-33-3333-3-3-33-3333---------------------------------|
-3-3-33-3333-3-3-33-3333---------------------------------|
-0-0-00-0000-0-0-00-0002---------------------------------|X2
-2-2-22-2222-2-2-22-2222---------------------------------|
-0-0-00-0000-3-3-33-3333---------------------------------|
---------------------------------------------------------|

(all this X1) "Everything you gave me"

------------------3333333333333333-----------------------|
------------------3333333333333333-----------------------|
------------------2222222222222222-----------------------|
-3-3-3-3-3-3-3-3--0000000000000000-----------------------|
-3-3-3-3-3-3-3-3-----------------------------------------|
-3-3-3-3-3-3-3-3-----------------------------------------|

Chorus (all this X2)
------------------3333333333333333-----------------------|
------------------3333333333333333-----------------------|
------------------2222222222222222-----------------------|
-3333333333333333-0000000000000000-----------------------|
-3333333333333333----------------------------------------|
-3333333333333333----------------------------------------|

-3333333333333333-33333333-33333333----------------------|
-3333333333333333-33333333-33333333----------------------|
-0000000000000000-00000000-22222222----------------------|X2
-0000000000000000-33333333-00000000----------------------|
-0000000000000000----------------------------------------|
-3333333333333333----------------------------------------|

End
-3----------3--------------------------------------------|
-3----------3--------------------------------------------|
-0----------2--------------------------------------------|
-0----------0---------3----------------------------------|
-2--------------------3----------------------------------|
----------------------3----------------------------------|
Related for Candles Acoustic tab
Candles Acoustic chords by Hey Monday