Song name
# A B C D E F G H I J K L M N O P Q R S T U V W X Y Z

Hey Monday - In My Head tab

|----------------------------------------------------------------------------|
|------3----0------3-----0-----3-----0-----3-----0-----3-----0-----3-----0---|
|----0-----0------0-----0-----0-----0-----0-----0-----0-----0-----0-----0----|
|----------------------------------------------------------------------------|
|---------------------------3-----3-----3-----3------------------------------|
|--3-----3------3-----3-----------------------------3-----3-----3-----3------|

|----------------------------------------------------------------------------|
|------3-----0-----3-----0---------------------------------------------------|
|----0-----0-----0-----0-----------------------------------------------------|
|-----------------------------X2---------------------------------------------|
|----------------------------------------------------------------------------|
|--2-----2-----2-----2-------------------------------------------------------|
Tap to rate this tab
 
# A B C D E F G H I J K L M N O P Q R S T U V W X Y Z