Song name
# A B C D E F G H I J K L M N O P Q R S T U V W X Y Z

Hey Monday - Hurricane Streets tab

Tuning: Drop D

My 1st tab! Did all this by ear. sounds dead on--tell me if you have any suggestions! thanks! =)

INTRO

**[I like playing this 2 ways so i tabbed both, use whichever one you prefer]**

Guitar 2 (Lead)

E--------------------------------------------|
B---5-5--0--2--7--5--2--5---0-2-5-7-10-9-7-9-|
G--------------------------------------------|
D--------------------------------------------|
A--------------------------------------------|
D--------------------------------------------|

E-----------------------------------------------|
B---5-5--0--2--7--5--2--5---0-2-5-7-10-9-7-9--5-|
G-----------------------------------------------|
D-----------------------------------------------|
A-----------------------------------------------|
D-----------------------------------------------|

               or...

E----------------------------------------------|
B------------------------------9h10-9--9-------|
G---9-9----9h11-9----9-----9-11------11--------|
D------9-11-------11---9-11--------------------|
A----------------------------------------------|
D----------------------------------------------|

E----------------------------------------------|
B------------------------------9h10-9--9-------|
G---9-9----9h11-9----9-----9-11------11--9-----|
D------9-11-------11---9-11--------------------|
A----------------------------------------------|
D----------------------------------------------|

Guitar 1(Rythym)

E--------------------------|
B--------------------------|
G---------------2-----2----|
D---2--4--6--6--2--2--2--4-|
A---2--2--4--6--0--2--0--2-|
D---2--------6-----2-------| (figure out strumming)

VERSE 1

Storm is rushing on me, here's the blinding flash....

Guitar 1 (Rhythm)

E----------------------------------------|
B----------------------------------------|
G---44444444-------------------22222222--|
D---22222222-44444444-66666666-22222222--|
A------------22222222-44444444-00000000--|
D----------------------------------------| x2

Wake up in a wasteland....

Guitar 2 (Lead)

E------------|
B---17-------|
G-----16-----|
D------------|
A------------|
D------- x32-|

Guitar 1 (Rythym)

E---------------------------------------|
B---------------------------------------|
G---44444444-------------------22222222-|
D---22222222-44444444-66666666-22222222-|
A------------22222222-44444444-00000000-|
D---------------------------------------|

E-------------------------|
B-------------------------|
G---4---------------------|
D---4---------------------|
A---2---------------------|
D-------------------------|


CHORUS

Live faster, love stronger....

Guitar 1 (Rythym)

E--------------------------|
B--------------------------|
G---------------2-----2----|
D---2--4--6--6--2--2--2--4-|
A---2--2--4--6--0--2--0--2-|
D---2--------6-----2-------| x2 (figure out strumming)

INTRO REPEATED ***note different rythym***

Guitar 2 (Lead)

E--------------------------------------------|
B---5-5--0--2--7--5--2--5---0-2-5-7-10-9-7-9-|
G--------------------------------------------|
D--------------------------------------------|
A--------------------------------------------|
D--------------------------------------------|

E-----------------------------------------------|
B---5-5--0--2--7--5--2--5---0-2-5-7-10-9-7-9--5-|
G-----------------------------------------------|
D-----------------------------------------------|
A-----------------------------------------------|
D-----------------------------------------------|

               or...

E----------------------------------------------|
B------------------------------9h10-9--9-------|
G---9-9----9h11-9----9-----9-11------11--------|
D------9-11-------11---9-11--------------------|
A----------------------------------------------|
D----------------------------------------------|

E----------------------------------------------|
B------------------------------9h10-9--9-------|
G---9-9----9h11-9----9-----9-11------11--9-----|
D------9-11-------11---9-11--------------------|
A----------------------------------------------|
D----------------------------------------------|

Guitar 1 (Rythym)

E---------------------|
B---------------------|
G---44444444----------|
D---22222222-44444444-|
A------------22222222-|
D---------------------| (figure out strumming)

VERSE 2

Heading for disaster, way beyond the fear....

Guitar 1 (Rhythm)

E----------------------------------------|
B----------------------------------------|
G---44444444-------------------22222222--|
D---22222222-44444444-66666666-22222222--|
A------------22222222-44444444-00000000--|
D----------------------------------------| x2

Don't care where im headed, anywhere but here....


Guitar 2 (Lead)

E------------|
B---17-------|
G-----16-----|
D------------|
A------------|
D------- x32-|

Guitar 1 (Rythym)

E----------------------------------------|
B----------------------------------------|
G---44444444-------------------22222222--|
D---22222222-44444444-66666666-22222222--|
A------------22222222-44444444-00000000--|
D----------------------------------------| x2

E-------------------------|
B-------------------------|
G---4---------------------|
D---4---------------------|
A---2---------------------|
D-------------------------|

(REPEAT CHORUS)


BRIDGE

Leaves are blowing down the streets, wind crawling up our knees....

E--------------|
B--------------|
G---2----------|
D---2--4--6--2-|
A---0--2--4--2-|
D------------2-| (firgure out strumming)

Rain is falling from the sky, but no fear in our eyes, we're ready to fly....

E--------------|
B--------------|
G---2-----2----|
D---2--4--0--4-|
A---0--2--0--2-|
D--------------| (figure out strumming)

(REPEAT CHORUS 2x)
Tap to rate this tab
 
# A B C D E F G H I J K L M N O P Q R S T U V W X Y Z