Song name
# A B C D E F G H I J K L M N O P Q R S T U V W X Y Z

Hey Monday - Homecoming Acoustic tab

-------------------------------------------------------------------------------
     HOMECOMING - Hey Monday
-------------------------------------------------------------------------------
Tabbed by: Kris
Email: raining-tears-ofbood@hotmail.com

Notes:  I got the tab from a youtube video, and the camera was focused 
on Cassadee the whole time, so I had a bit of trouble with the solo.  
But I'm 99% positive it's accurate.  Also, I'm pretty sure Mike and 
Cassadee played the exact same thing for the Verses and the Choruses, 
so I'm only putting the one line of tab where necessary, instead of 
repeating myself twice. 
http://www.youtube.com/watch?v=EqLBnmPwjUo

Tuning: Guitar 1: Drop D
        Guitar 2: Drop D

Intro:

Guitar 1: (Mike)
e|---------------------------|
B|---------------------------|
G|----0-2-4-2-0----0-2-4-2-0-|
D|-2-------------2-----------| x2
A|---------------------------|
D|---------------------------|

Guitar 2: (Cassadee) 
the x's here represent one downstroke 
then upstroke of the chord Cassadee 
has muted.  Meaning that for each X, 
you strum twice - down, then up)
e|-------------------------------|
B|-------------------------------|
G|-------------------------------|
D|-2-xxxxxxx-2-xxxxxxx-----------|
A|-2-xxxxxxx-2-xxxxxxx-----------|
D|-2-xxxxxxx-2-xxxxxxx-----------|

Verse 1:

Strumming: DD DUDU DD DUDU etc
e|-------------------2-2----------------|
B|-------------------3-3----------------|
G|-------------------2-2----------------|
D|-2-2-xxxx-5-5-xxxx-0-0-xxxx-7-7-xxxx--| x3
A|-2-2-xxxx-5-5-xxxx-0-0-xxxx-7-7-xxxx--|
D|-2-2-xxxx-5-5-xxxx-0-0-xxxx-7-7-xxxx--|

Pre-Chorus

Guitar 1: (Mike)
e|---------------------------|
B|---------------------------|
G|---------------------------|
D|-7~-----10~----------------|
A|-7~-----10~----------------|
D|-7~-----10~----------------|

Guitar 2: (Cassadee)
Strumming: D D DUDUDUDU
e|-------------------------------|
B|-------------------------------|
G|-------------------------------|
D|-7~-----10~------10------------|
A|-7~-----10~------10(x8)--------|
D|-7~-----10~------10------------|

Chorus:

Strumming: DUDUDUDU etc.
e|-------------2---------------|
B|-------------3---------------|
G|-------------2---------------|
D|-2-----5-----0-----7---------| x3
A|-2(x8)-5(x8)-0(x8)-7(x8)-----|
D|-2-----5-----0-----7---------|

Chorus Part 2:

Strumming: DD DUDU DD DUDU etc
e|----------------------------------------|
B|----------------------------------------|
G|----------------------------------------|
D|-2-2-xxxx--5-5-xxxx--0-0-xxxx--7-7-xxxx-|
A|-2-2-xxxx--5-5-xxxx--0-0-xxxx--7-7-xxxx-|
D|-2-2-xxxx--5-5-xxxx--0-0-xxxx--7-7-xxxx-|

Intro:

Guitar 1: (Mike)
e|---------------------------|
B|---------------------------|
G|----0-2-4-2-0----0-2-4-2-0-|
D|-2-------------2-----------| x2
A|---------------------------|
D|---------------------------|

Guitar 2: (Cassadee) 
the x's here represent one downstroke 
then upstroke of the chord Cassadee 
has muted.  Meaning that for each X, 
you strum twice - down, then up)
e|-------------------------------|
B|-------------------------------|
G|-------------------------------|
D|-2-xxxxxxx-2-xxxxxxx-----------|
A|-2-xxxxxxx-2-xxxxxxx-----------|
D|-2-xxxxxxx-2-xxxxxxx-----------|

Verse 1:

Strumming: DD DUDU DD DUDU etc
e|-------------------2-2----------------|
B|-------------------3-3----------------|
G|-------------------2-2----------------|
D|-2-2-xxxx-5-5-xxxx-0-0-xxxx-7-7-xxxx--| x3
A|-2-2-xxxx-5-5-xxxx-0-0-xxxx-7-7-xxxx--|
D|-2-2-xxxx-5-5-xxxx-0-0-xxxx-7-7-xxxx--|

Pre-Chorus

Guitar 1: (Mike)
e|---------------------------|
B|---------------------------|
G|---------------------------|
D|-7~-----10~----------------|
A|-7~-----10~----------------|
D|-7~-----10~----------------|

Guitar 2: (Cassadee)
Strumming: D D DUDUDUDU
e|-------------------------------|
B|-------------------------------|
G|-------------------------------|
D|-7~-----10~------10------------|
A|-7~-----10~------10(x8)--------|
D|-7~-----10~------10------------|

Chorus:

Strumming: DUDUDUDU etc.
e|-------------2---------------|
B|-------------3---------------|
G|-------------2---------------|
D|-2-----5-----0-----7---------| x3
A|-2(x8)-5(x8)-0(x8)-7(x8)-----|
D|-2-----5-----0-----7---------|

Chorus Part 2:

Strumming: DD DUDU DD DUDU etc
e|---------------------2-2----------------|
B|---------------------3-3----------------|
G|---------------------2-2----------------|
D|-2-2-xxxx--5-5-xxxx--0-0-xxxx--7-7-xxxx-|
A|-2-2-xxxx--5-5-xxxx--0-0-xxxx--7-7-xxxx-|
D|-2-2-xxxx--5-5-xxxx--0-0-xxxx--7-7-xxxx-|

Bridge:

Strumming: DUDUDUDU etc
e|-------------------------------------|
B|-------------------------------------|
G|-5-----7-----7-----7-----5-----7-----|
D|-5(x8)-7(x8)-7(x8)-7(x8)-5(x8)-7(x8)-| 
A|-3-----5-----5-----5-----3-----5-----|
D|-------------5-----------------------|

Solo:

Guitar 1: (Mike)
e|-12-12---14-14--15~-15--17--17-|
B|-------------------------------|
G|-------------------------------|
D|-------------------------------| x2
A|-------------------------------|
D|-------------------------------|

Guitar 2: (Cassadee)
(I'm not sure if she strums it 6
or 8 times, so try both)
Strumming: DD DUDU DD D DUDU... etc
e|-------------------------------|
B|-------------------------------|
G|----------4-4-5-----7----------|
D|-2-2-xxxx-4-4-5(x6)-7(x6)------|
A|-2-2-xxxx-2-2-3-----5----------|
D|-2-2-xxxx----------------------|

Pre-Chorus:

e|---------2-------------|
B|---------3-------------|
G|---------2-------------|
D|-2~--5~--0~--7~--------|
A|-2~--5~--0~--7~--------|
D|-2~--5~--0~--7~--------|

Chorus:

Strumming: DUDUDUDU etc.
e|-------------2---------------|
B|-------------3---------------|
G|-------------2---------------|
D|-2-----5-----0-----7---------| x3
A|-2(x8)-5(x8)-0(x8)-7(x8)-----|
D|-2-----5-----0-----7---------|

e|---------------------2-2----------------|
B|---------------------3-3----------------|
G|---------------------2-2----------------|
D|-2-2-xxxx--5-5-xxxx--0-0-xxxx--7-7-xxxx-|
A|-2-2-xxxx--5-5-xxxx--0-0-xxxx--7-7-xxxx-|
D|-2-2-xxxx--5-5-xxxx--0-0-xxxx--7-7-xxxx-|

e|-------------2---------------|
B|-------------3---------------|
G|-------------2---------------|
D|-2-----5-----0-----7---------| x3
A|-2(x8)-5(x8)-0(x8)-7(x8)-----|
D|-2-----5-----0-----7---------|

e|---------------------2-2--------------------|
B|---------------------3-3--------------------|
G|---------------------2-2--------------------|
D|-2-2-xxxx--5-5-xxxx--0-0-xxxx--7-7-xxxx--2~-|
A|-2-2-xxxx--5-5-xxxx--0-0-xxxx--7-7-xxxx--2~-|
D|-2-2-xxxx--5-5-xxxx--0-0-xxxx--7-7-xxxx--2~-|


************************************

| ~   vibrato
| x   Mute note

************************************
Tap to rate this tab
# A B C D E F G H I J K L M N O P Q R S T U V W X Y Z