Song name
# A B C D E F G H I J K L M N O P Q R S T U V W X Y Z

Hey Monday - Candles tab

version 1 for chords GOT THE ORIGINAL CHORDS RIGHT... THIS IS JUST A RANDOM TAB I 
MADE AND IT SOUNDS GOOD. DONT HATE :)

INTRO
e |----------------------------------------|
B |--11----11-9---9----(14)----------------|
G |-----11-----11----11----11-10-11--------|
D |----------------------------------------|
A |----------------------------------------|
D |----------------------------------------|

DONT PLAY ANYTHING UNTIL Prechorus
"Lost sight, couldn't see, when it was you and me"
e |----------------------------------------|
B |----------------------------------------|
G |----------------------------------------|
D |---9----11----9----11-------------------|
A |---9----11----9----11-------------------|
D |---9----11----9----11-------------------|
     (8x) (8x)  (4x) (4x)

Chorus
e |------------------------------------------|
B |------------------------------------------|
G |------------------------------------------|
D |---4----11----1---9--11-------------------|
A |---4----11----1---9--11-------------------|
D |---4----11----1---9--11-------------------|
I DON'T KNOW HOW MANY TIMES YOU NEED TO STRUM, BUT JUST FOLLOW THE ORIGINAL CHORDS
Tap to rate this tab
# A B C D E F G H I J K L M N O P Q R S T U V W X Y Z