Song name
# A B C D E F G H I J K L M N O P Q R S T U V W X Y Z

Hey Monday - O Holy Night tab

Acoustic-Standard
Electric 1-Drop D
Electric 2-Drop D

INTRO (Piano)

VERSE (part 1)

Acoustic

E|----------------|
B|----------------|
G|---5-6----5---5-|
D|-6-5-6-6--5-5-5-|
A|-6-3-4-6--3-5-3-|
E|-4-----4----3---|

VERSE (part 2)

Acoustic

E|---------|
B|---------|
G|---------|
D|-8-6-8-6-|
A|-8-6-8-6-|
D|-6-4-6-4-|

CHORUS

Electric 1

E|-----------------------|
B|-----------------------|
G|-13-8-10-5--13-12-13-8-|
D|-x--x-x--x--x--x--x--x-|
A|-11-6-8--3--11-10-11-6-|
D|-----------------------|

Electric 2

E|----------------------------------|
B|----------------------------------|
G|----------------------------------|
D|------3-10-8-3----10-8-6-11-6-8-6-|
A|------3-10-8-3----10-8-6-11-6-8-6-|
D|-////-3-10-8-3----10-8-6-11-6-8-6-|

POST

Electric 1

E|-----------------|
B|-----------------|
G|-12-13-10-8-12-8-|
D|-x--x--x--x-x--x-|
A|-10-11-8--6-10-6-|
D|-----------------|

Electric 2

E|--------------|
B|--------------|
G|-----10---8---|
D|-1-6-10-6-8-6-|
A|-1-6-8--6-6-6-|
D|-1-6----6---6-|

VERSE (part 1)

Electric 2
(palm mute)
E|--------------------|
B|--------------------|
G|----------------8---|
D|-6-10-11-6----6-8-6-|
A|-6-10-11-6----6-6-6-|
D|-6-10-11-6----6---6-|

VERSE (part 2)

Electric 1
(listen to song)
E|-------------------|
B|-------------------|
G|-5-8-10-13-12------|
D|-5-8-10-13-12-5-10-|
A|-3-6-8--11-10-5-10-|
D|--------------5-10-|

Electric 2

E|--------------------|
B|--------------------|
G|--------------------|
D|-6-10-11-6--10-5-10-|
A|-6-10-11-6--10-5-10-|
D|-6-10-11-6--10-5-10-|

PRE-CHORUS

Electric 1+2

E|-------|
B|-------|
G|---8---|
D|-8-8-6-| x2
A|-8-6-6-|
D|-8---6-|

CHORUS 

POST

Tap to rate this tab
# A B C D E F G H I J K L M N O P Q R S T U V W X Y Z