Song name
# A B C D E F G H I J K L M N O P Q R S T U V W X Y Z

Hey Rosetta - Tie Down The Dying tab

-------------------------------------------------------------------------------
		    Tie Down The Dying - Hey Rosetta!
-------------------------------------------------------------------------------
Tabbed by:Soccerguy
Email:colinpowell111@hotmail.com

Tuning:Standard

Verse
e|-1--3--1--1--0--1----1----3----1--0--1------------------------|
B|-1--3--1--1--2--3----1----3----1--2--3------------------------|
G|-2--2--2--2--2--2----2----2----2--2--2------------------------|
D|-3-----3--3--2-------3---------3--2---------------------------|
A|--------------------------------------------------------------|
E|--------------------------------------------------------------|

Chorus
e|-0--1---0--3--0--1--------------------------------------------|
B|-1--3---1--3--1--2--------------------------------------------|
G|-0--2---0--0--0--3--------------------------------------------|
D|-2------2-----2-----------------------------------------------|
A|-3------3-----3-----------------------------------------------|
E|--------------------------------------------------------------|

e|---------------------|------------------|
B|---------------------|------------------|
G|-------5--5--3--3--3-|-------5--5--4--3-|
D|-3--3--5--5--3--3--3-|-3--3--5--5--4--3-|
A|-3--3--3--3--1--1--1-|-3--3--3--3--2--1-|
E|-1--1----------------|-1--1-------------|

"You Can Stop The Train" Part thingy!
e|-----------------------------------------|
B|-----------------------------------------|
G|--7--4--5-6------------------------------|
D|--7--4--5-6------------------------------|
A|--5--2--3-4------------------------------|
E|-----------------------------------------|
                                    2nd time
e|----12--13--15--13-17-15-13-12-13|-17-18-17-15-13-12--|
B|--15--15--15--15-----------------|--------------------|
G|---------------------------------|--------------------|
D|---------------------------------|--------------------|
A|---------------------------------|--------------------|
E|---------------------------------|--------------------|
Ending
e|--13--15-17~--------------|
B|----15--------------------|
G|--------------------------|
D|--------------------------|
A|--------------------------|
E|--------------------------|

| /  slide up
| \  slide down
| h  hammer-on
| p  pull-off
| ~  vibrato
| +  harmonic
| x  Mute note
===============================================================================
Tap to rate this tab
# A B C D E F G H I J K L M N O P Q R S T U V W X Y Z